ISO-10303-21;
HEADER;
FILE_DESCRIPTION (( 'STEP AP203' ),
    '1' );
FILE_NAME ('TLR3AW10mƒ¶.STEP',
    '2019-11-13T09:23:16',
    ( '' ),
    ( '' ),
    'SwSTEP 2.0',
    'SolidWorks 2019',
    '' );
FILE_SCHEMA (( 'CONFIG_CONTROL_DESIGN' ));
ENDSEC;

DATA;
#1 = CARTESIAN_POINT ( 'NONE',  ( 1.590000000000000080, 2.404999999999999805, -0.007500000000000000590 ) ) ;
#2 = VECTOR ( 'NONE', #165, 1000.000000000000000 ) ;
#3 = EDGE_CURVE ( 'NONE', #48, #208, #204, .T. ) ;
#4 = VECTOR ( 'NONE', #239, 1000.000000000000000 ) ;
#5 = ORIENTED_EDGE ( 'NONE', *, *, #115, .T. ) ;
#6 = APPLICATION_PROTOCOL_DEFINITION ( 'international standard', 'config_control_design', 1994, #259 ) ;
#7 = PERSON_AND_ORGANIZATION_ROLE ( 'creator' ) ;
#8 = ORIENTED_EDGE ( 'NONE', *, *, #246, .T. ) ;
#9 = CALENDAR_DATE ( 2019, 13, 11 ) ;
#10 = PERSON_AND_ORGANIZATION ( #87, #229 ) ;
#11 = ORIENTED_EDGE ( 'NONE', *, *, #288, .F. ) ;
#12 = CARTESIAN_POINT ( 'NONE',  ( 1.590000000000000080, 0.0000000000000000000, 0.1000000000000000056 ) ) ;
#13 = CALENDAR_DATE ( 2019, 13, 11 ) ;
#14 = ORIENTED_EDGE ( 'NONE', *, *, #193, .F. ) ;
#15 = CALENDAR_DATE ( 2019, 13, 11 ) ;
#16 = EDGE_CURVE ( 'NONE', #264, #44, #203, .T. ) ;
#17 = DIRECTION ( 'NONE',  ( -1.000000000000000000, 0.0000000000000000000, 0.0000000000000000000 ) ) ;
#18 = ORIENTED_EDGE ( 'NONE', *, *, #150, .F. ) ;
#19 = PLANE ( 'NONE',  #167 ) ;
#20 = CC_DESIGN_PERSON_AND_ORGANIZATION_ASSIGNMENT ( #164, #291, ( #168 ) ) ;
#21 = PLANE ( 'NONE',  #286 ) ;
#22 = DIRECTION ( 'NONE',  ( 1.000000000000000000, 0.0000000000000000000, 0.0000000000000000000 ) ) ;
#23 = CARTESIAN_POINT ( 'NONE',  ( 1.590000000000000080, -3.174999999999999822, -0.007500000000000000590 ) ) ;
#24 = LINE ( 'NONE', #334, #61 ) ;
#25 = DIRECTION ( 'NONE',  ( -1.000000000000000000, 0.0000000000000000000, 0.0000000000000000000 ) ) ;
#26 = LINE ( 'NONE', #52, #32 ) ;
#27 = ORIENTED_EDGE ( 'NONE', *, *, #53, .T. ) ;
#28 = VECTOR ( 'NONE', #361, 1000.000000000000000 ) ;
#29 = EDGE_CURVE ( 'NONE', #68, #321, #230, .T. ) ;
#30 = EDGE_CURVE ( 'NONE', #215, #321, #97, .T. ) ;
#31 = CC_DESIGN_PERSON_AND_ORGANIZATION_ASSIGNMENT ( #348, #126, ( #100 ) ) ;
#32 = VECTOR ( 'NONE', #195, 1000.000000000000000 ) ;
#33 = PERSON_AND_ORGANIZATION_ROLE ( 'design_supplier' ) ;
#34 = CARTESIAN_POINT ( 'NONE',  ( -1.590000000000000080, -2.404999999999999805, 0.1000000000000000056 ) ) ;
#35 = EDGE_CURVE ( 'NONE', #162, #62, #47, .T. ) ;
#36 = APPROVAL_STATUS ( 'not_yet_approved' ) ;
#37 = DIRECTION ( 'NONE',  ( 0.0000000000000000000, -1.000000000000000000, 0.0000000000000000000 ) ) ;
#38 = EDGE_LOOP ( 'NONE', ( #8, #349, #296, #233 ) ) ;
#39 = VERTEX_POINT ( 'NONE', #1 ) ;
#40 = DIRECTION ( 'NONE',  ( -1.000000000000000000, 0.0000000000000000000, 0.0000000000000000000 ) ) ;
#41 = COORDINATED_UNIVERSAL_TIME_OFFSET ( 9, 0, .AHEAD. ) ;
#42 = EDGE_CURVE ( 'NONE', #39, #264, #119, .T. ) ;
#43 = ORIENTED_EDGE ( 'NONE', *, *, #63, .T. ) ;
#44 = VERTEX_POINT ( 'NONE', #152 ) ;
#45 = CARTESIAN_POINT ( 'NONE',  ( 0.0000000000000000000, -3.174999999999999822, 0.0000000000000000000 ) ) ;
#46 = VECTOR ( 'NONE', #318, 1000.000000000000000 ) ;
#47 = LINE ( 'NONE', #180, #218 ) ;
#48 = VERTEX_POINT ( 'NONE', #177 ) ;
#49 = DIRECTION ( 'NONE',  ( 0.0000000000000000000, -1.000000000000000000, 0.0000000000000000000 ) ) ;
#50 = VECTOR ( 'NONE', #272, 1000.000000000000000 ) ;
#51 = CARTESIAN_POINT ( 'NONE',  ( 0.0000000000000000000, -2.404999999999999805, 0.0000000000000000000 ) ) ;
#52 = CARTESIAN_POINT ( 'NONE',  ( -1.590000000000000080, 2.404999999999999805, 0.0000000000000000000 ) ) ;
#53 = EDGE_CURVE ( 'NONE', #44, #66, #285, .T. ) ;
#54 = LINE ( 'NONE', #111, #294 ) ;
#55 = DIRECTION ( 'NONE',  ( 1.000000000000000000, 0.0000000000000000000, 0.0000000000000000000 ) ) ;
#56 = CARTESIAN_POINT ( 'NONE',  ( -1.590000000000000080, 2.404999999999999805, -0.007500000000000000590 ) ) ;
#57 = FACE_OUTER_BOUND ( 'NONE', #106, .T. ) ;
#58 = LOCAL_TIME ( 18, 23, 16.00000000000000000, #118 ) ;
#59 = ORIENTED_EDGE ( 'NONE', *, *, #356, .F. ) ;
#60 = DIRECTION ( 'NONE',  ( 0.0000000000000000000, 0.0000000000000000000, 1.000000000000000000 ) ) ;
#61 = VECTOR ( 'NONE', #40, 1000.000000000000000 ) ;
#62 = VERTEX_POINT ( 'NONE', #34 ) ;
#63 = EDGE_CURVE ( 'NONE', #290, #281, #156, .T. ) ;
#64 = CARTESIAN_POINT ( 'NONE',  ( 0.0000000000000000000, 3.174999999999999822, 0.6500000000000000222 ) ) ;
#65 = COORDINATED_UNIVERSAL_TIME_OFFSET ( 9, 0, .AHEAD. ) ;
#66 = VERTEX_POINT ( 'NONE', #299 ) ;
#67 = DIRECTION ( 'NONE',  ( 0.0000000000000000000, 0.0000000000000000000, -1.000000000000000000 ) ) ;
#68 = VERTEX_POINT ( 'NONE', #136 ) ;
#69 = EDGE_LOOP ( 'NONE', ( #293, #320, #75, #319 ) ) ;
#70 = CARTESIAN_POINT ( 'NONE',  ( 0.0000000000000000000, 0.0000000000000000000, 0.0000000000000000000 ) ) ;
#71 = ADVANCED_FACE ( 'NONE', ( #304 ), #247, .T. ) ;
#72 = CALENDAR_DATE ( 2019, 13, 11 ) ;
#73 = ORIENTED_EDGE ( 'NONE', *, *, #63, .F. ) ;
#74 = PERSON_AND_ORGANIZATION_ROLE ( 'design_owner' ) ;
#75 = ORIENTED_EDGE ( 'NONE', *, *, #139, .F. ) ;
#76 = DIRECTION ( 'NONE',  ( 0.0000000000000000000, 0.0000000000000000000, -1.000000000000000000 ) ) ;
#77 = ORIENTED_EDGE ( 'NONE', *, *, #29, .T. ) ;
#78 = AXIS2_PLACEMENT_3D ( 'NONE', #367, #331, #17 ) ;
#79 = CARTESIAN_POINT ( 'NONE',  ( 1.590000000000000080, -2.404999999999999805, 0.0000000000000000000 ) ) ;
#80 = CARTESIAN_POINT ( 'NONE',  ( 0.0000000000000000000, 0.0000000000000000000, 0.6500000000000000222 ) ) ;
#81 = FACE_OUTER_BOUND ( 'NONE', #209, .T. ) ;
#82 = CARTESIAN_POINT ( 'NONE',  ( -1.590000000000000080, -2.790000000000000036, 0.0000000000000000000 ) ) ;
#83 = PLANE ( 'NONE',  #261 ) ;
#84 = LINE ( 'NONE', #197, #110 ) ;
#85 = AXIS2_PLACEMENT_3D ( 'NONE', #275, #22, #109 ) ;
#86 = EDGE_CURVE ( 'NONE', #215, #290, #54, .T. ) ;
#87 = PERSON ( 'UNSPECIFIED', 'UNSPECIFIED', 'UNSPECIFIED', ('UNSPECIFIED'), ('UNSPECIFIED'), ('UNSPECIFIED') ) ;
#88 = CC_DESIGN_APPROVAL ( #142, ( #168 ) ) ;
#89 = CC_DESIGN_DATE_AND_TIME_ASSIGNMENT ( #104, #206, ( #168 ) ) ;
#90 = CC_DESIGN_SECURITY_CLASSIFICATION ( #100, ( #369 ) ) ;
#91 = DATE_AND_TIME ( #122, #224 ) ;
#92 = ORIENTED_EDGE ( 'NONE', *, *, #139, .T. ) ;
#93 =( LENGTH_UNIT ( ) NAMED_UNIT ( * ) SI_UNIT ( .MILLI., .METRE. ) );
#94 = APPROVAL_DATE_TIME ( #202, #117 ) ;
#95 = ORIENTED_EDGE ( 'NONE', *, *, #222, .T. ) ;
#96 = DIRECTION ( 'NONE',  ( 0.0000000000000000000, -1.000000000000000000, 0.0000000000000000000 ) ) ;
#97 = LINE ( 'NONE', #295, #217 ) ;
#98 = CARTESIAN_POINT ( 'NONE',  ( -1.590000000000000080, -2.790000000000000036, -0.007500000000000000590 ) ) ;
#99 = ORIENTED_EDGE ( 'NONE', *, *, #237, .T. ) ;
#100 = SECURITY_CLASSIFICATION ( '', '', #158 ) ;
#101 = EDGE_LOOP ( 'NONE', ( #323, #18, #124, #184 ) ) ;
#102 = DESIGN_CONTEXT ( 'detailed design', #259, 'design' ) ;
#103 = ORIENTED_EDGE ( 'NONE', *, *, #317, .T. ) ;
#104 = DATE_AND_TIME ( #9, #258 ) ;
#105 = FACE_OUTER_BOUND ( 'NONE', #101, .T. ) ;
#106 = EDGE_LOOP ( 'NONE', ( #77, #351, #186, #43, #312, #354, #166, #324 ) ) ;
#107 = LINE ( 'NONE', #362, #257 ) ;
#108 = CARTESIAN_POINT ( 'NONE',  ( 0.0000000000000000000, 3.174999999999999822, 0.0000000000000000000 ) ) ;
#109 = DIRECTION ( 'NONE',  ( 0.0000000000000000000, 0.0000000000000000000, -1.000000000000000000 ) ) ;
#110 = VECTOR ( 'NONE', #366, 1000.000000000000000 ) ;
#111 = CARTESIAN_POINT ( 'NONE',  ( 1.590000000000000080, -2.790000000000000036, -0.007500000000000000590 ) ) ;
#112 = FACE_OUTER_BOUND ( 'NONE', #174, .T. ) ;
#113 = CARTESIAN_POINT ( 'NONE',  ( -1.590000000000000080, 0.0000000000000000000, 0.6500000000000000222 ) ) ;
#114 = CARTESIAN_POINT ( 'NONE',  ( 0.0000000000000000000, 2.404999999999999805, -0.007500000000000000590 ) ) ;
#115 = EDGE_CURVE ( 'NONE', #39, #208, #333, .T. ) ;
#116 = CC_DESIGN_APPROVAL ( #175, ( #100 ) ) ;
#117 = APPROVAL ( #36, 'UNSPECIFIED' ) ;
#118 = COORDINATED_UNIVERSAL_TIME_OFFSET ( 9, 0, .AHEAD. ) ;
#119 = LINE ( 'NONE', #343, #120 ) ;
#120 = VECTOR ( 'NONE', #287, 1000.000000000000000 ) ;
#121 = CC_DESIGN_PERSON_AND_ORGANIZATION_ASSIGNMENT ( #225, #33, ( #369 ) ) ;
#122 = CALENDAR_DATE ( 2019, 13, 11 ) ;
#123 = CC_DESIGN_APPROVAL ( #117, ( #369 ) ) ;
#124 = ORIENTED_EDGE ( 'NONE', *, *, #326, .F. ) ;
#125 = COORDINATED_UNIVERSAL_TIME_OFFSET ( 9, 0, .AHEAD. ) ;
#126 = PERSON_AND_ORGANIZATION_ROLE ( 'classification_officer' ) ;
#127 = DIRECTION ( 'NONE',  ( 0.0000000000000000000, 0.0000000000000000000, 1.000000000000000000 ) ) ;
#128 = PLANE ( 'NONE',  #134 ) ;
#129 = EDGE_LOOP ( 'NONE', ( #14, #292, #187, #163 ) ) ;
#130 = ORIENTED_EDGE ( 'NONE', *, *, #53, .F. ) ;
#131 = DIRECTION ( 'NONE',  ( 0.0000000000000000000, 0.0000000000000000000, -1.000000000000000000 ) ) ;
#132 = MANIFOLD_SOLID_BREP ( '²ÝÎß°Ä1', #188 ) ;
#133 = CARTESIAN_POINT ( 'NONE',  ( 0.0000000000000000000, 3.174999999999999822, -0.007500000000000000590 ) ) ;
#134 = AXIS2_PLACEMENT_3D ( 'NONE', #45, #161, #131 ) ;
#135 = FACE_OUTER_BOUND ( 'NONE', #346, .T. ) ;
#136 = CARTESIAN_POINT ( 'NONE',  ( 1.590000000000000080, 3.174999999999999822, 0.6500000000000000222 ) ) ;
#137 = EDGE_LOOP ( 'NONE', ( #241, #196, #73, #103 ) ) ;
#138 = LINE ( 'NONE', #245, #263 ) ;
#139 = EDGE_CURVE ( 'NONE', #44, #182, #335, .T. ) ;
#140 = FACE_OUTER_BOUND ( 'NONE', #129, .T. ) ;
#141 = VECTOR ( 'NONE', #25, 1000.000000000000000 ) ;
#142 = APPROVAL ( #181, 'UNSPECIFIED' ) ;
#143 = LINE ( 'NONE', #113, #50 ) ;
#144 = LINE ( 'NONE', #114, #271 ) ;
#145 = CARTESIAN_POINT ( 'NONE',  ( 1.590000000000000080, 2.404999999999999805, 0.0000000000000000000 ) ) ;
#146 = ADVANCED_FACE ( 'NONE', ( #81 ), #83, .T. ) ;
#147 = DIRECTION ( 'NONE',  ( 1.000000000000000000, 0.0000000000000000000, 0.0000000000000000000 ) ) ;
#148 = ORIENTED_EDGE ( 'NONE', *, *, #3, .F. ) ;
#149 = APPROVAL_PERSON_ORGANIZATION ( #155, #175, #341 ) ;
#150 = EDGE_CURVE ( 'NONE', #235, #215, #214, .T. ) ;
#151 = PRODUCT ( 'TLR3AW10mƒ¶', 'TLR3AW10mƒ¶', '', ( #316 ) ) ;
#152 = CARTESIAN_POINT ( 'NONE',  ( -1.590000000000000080, 3.174999999999999822, -0.007500000000000000590 ) ) ;
#153 = LINE ( 'NONE', #64, #308 ) ;
#154 = VECTOR ( 'NONE', #169, 1000.000000000000000 ) ;
#155 = PERSON_AND_ORGANIZATION ( #87, #229 ) ;
#156 = LINE ( 'NONE', #79, #154 ) ;
#157 = APPROVAL_ROLE ( '' ) ;
#158 = SECURITY_CLASSIFICATION_LEVEL ( 'unclassified' ) ;
#159 = ORIENTED_EDGE ( 'NONE', *, *, #284, .F. ) ;
#160 = ORIENTED_EDGE ( 'NONE', *, *, #35, .F. ) ;
#161 = DIRECTION ( 'NONE',  ( 0.0000000000000000000, -1.000000000000000000, 0.0000000000000000000 ) ) ;
#162 = VERTEX_POINT ( 'NONE', #279 ) ;
#163 = ORIENTED_EDGE ( 'NONE', *, *, #222, .F. ) ;
#164 = PERSON_AND_ORGANIZATION ( #87, #229 ) ;
#165 = DIRECTION ( 'NONE',  ( 1.000000000000000000, 0.0000000000000000000, 0.0000000000000000000 ) ) ;
#166 = ORIENTED_EDGE ( 'NONE', *, *, #42, .T. ) ;
#167 = AXIS2_PLACEMENT_3D ( 'NONE', #344, #96, #67 ) ;
#168 = PRODUCT_DEFINITION ( 'UNKNOWN', '', #369, #102 ) ;
#169 = DIRECTION ( 'NONE',  ( 0.0000000000000000000, 0.0000000000000000000, 1.000000000000000000 ) ) ;
#170 = PLANE ( 'NONE',  #298 ) ;
#171 = DIRECTION ( 'NONE',  ( 0.0000000000000000000, 0.0000000000000000000, 1.000000000000000000 ) ) ;
#172 = CARTESIAN_POINT ( 'NONE',  ( 0.0000000000000000000, -3.174999999999999822, 0.6500000000000000222 ) ) ;
#173 = CARTESIAN_POINT ( 'NONE',  ( 1.590000000000000080, 3.174999999999999822, -0.007500000000000000590 ) ) ;
#174 = EDGE_LOOP ( 'NONE', ( #328, #95, #130, #92, #262, #59, #160, #226 ) ) ;
#175 = APPROVAL ( #350, 'UNSPECIFIED' ) ;
#176 = APPROVAL_PERSON_ORGANIZATION ( #232, #117, #314 ) ;
#177 = CARTESIAN_POINT ( 'NONE',  ( -1.590000000000000080, 2.404999999999999805, 0.1000000000000000056 ) ) ;
#178 = DIRECTION ( 'NONE',  ( 0.0000000000000000000, 1.000000000000000000, 0.0000000000000000000 ) ) ;
#179 = ADVANCED_FACE ( 'NONE', ( #105 ), #21, .T. ) ;
#180 = CARTESIAN_POINT ( 'NONE',  ( -1.590000000000000080, -2.404999999999999805, 0.0000000000000000000 ) ) ;
#181 = APPROVAL_STATUS ( 'not_yet_approved' ) ;
#182 = VERTEX_POINT ( 'NONE', #56 ) ;
#183 = ORIENTED_EDGE ( 'NONE', *, *, #150, .T. ) ;
#184 = ORIENTED_EDGE ( 'NONE', *, *, #317, .F. ) ;
#185 = APPROVAL_DATE_TIME ( #265, #142 ) ;
#186 = ORIENTED_EDGE ( 'NONE', *, *, #86, .T. ) ;
#187 = ORIENTED_EDGE ( 'NONE', *, *, #340, .F. ) ;
#188 = CLOSED_SHELL ( 'NONE', ( #71, #339, #276, #307, #345, #146, #309, #301, #200, #179 ) ) ;
#189 = CARTESIAN_POINT ( 'NONE',  ( -1.590000000000000080, -3.174999999999999822, 0.6500000000000000222 ) ) ;
#190 = VECTOR ( 'NONE', #178, 1000.000000000000000 ) ;
#191 = DIRECTION ( 'NONE',  ( 0.0000000000000000000, 0.0000000000000000000, 1.000000000000000000 ) ) ;
#192 = DIRECTION ( 'NONE',  ( 0.0000000000000000000, 0.0000000000000000000, 1.000000000000000000 ) ) ;
#193 = EDGE_CURVE ( 'NONE', #321, #211, #251, .T. ) ;
#194 = DIRECTION ( 'NONE',  ( 0.0000000000000000000, 1.000000000000000000, 0.0000000000000000000 ) ) ;
#195 = DIRECTION ( 'NONE',  ( 0.0000000000000000000, 0.0000000000000000000, 1.000000000000000000 ) ) ;
#196 = ORIENTED_EDGE ( 'NONE', *, *, #246, .F. ) ;
#197 = CARTESIAN_POINT ( 'NONE',  ( 0.0000000000000000000, -2.404999999999999805, 0.1000000000000000056 ) ) ;
#198 = APPLICATION_CONTEXT ( 'configuration controlled 3d designs of mechanical parts and assemblies' ) ;
#199 = AXIS2_PLACEMENT_3D ( 'NONE', #80, #192, #55 ) ;
#200 = ADVANCED_FACE ( 'NONE', ( #274 ), #302, .T. ) ;
#201 = LOCAL_TIME ( 18, 23, 16.00000000000000000, #65 ) ;
#202 = DATE_AND_TIME ( #13, #58 ) ;
#203 = LINE ( 'NONE', #133, #4 ) ;
#204 = LINE ( 'NONE', #315, #342 ) ;
#205 = LINE ( 'NONE', #236, #190 ) ;
#206 = DATE_TIME_ROLE ( 'creation_date' ) ;
#207 = CARTESIAN_POINT ( 'NONE',  ( -1.590000000000000080, 3.174999999999999822, 0.0000000000000000000 ) ) ;
#208 = VERTEX_POINT ( 'NONE', #277 ) ;
#209 = EDGE_LOOP ( 'NONE', ( #27, #269, #159, #266 ) ) ;
#210 = LINE ( 'NONE', #98, #330 ) ;
#211 = VERTEX_POINT ( 'NONE', #189 ) ;
#212 = EDGE_LOOP ( 'NONE', ( #244, #358, #289, #183 ) ) ;
#213 = CARTESIAN_POINT ( 'NONE',  ( 1.590000000000000080, -3.174999999999999822, 0.6500000000000000222 ) ) ;
#214 = LINE ( 'NONE', #357, #2 ) ;
#215 = VERTEX_POINT ( 'NONE', #23 ) ;
#216 = DIRECTION ( 'NONE',  ( 0.0000000000000000000, 0.0000000000000000000, 1.000000000000000000 ) ) ;
#217 = VECTOR ( 'NONE', #127, 1000.000000000000000 ) ;
#218 = VECTOR ( 'NONE', #260, 1000.000000000000000 ) ;
#219 = DIRECTION ( 'NONE',  ( 0.0000000000000000000, 1.000000000000000000, 0.0000000000000000000 ) ) ;
#220 = CARTESIAN_POINT ( 'NONE',  ( 0.0000000000000000000, 0.0000000000000000000, 0.1000000000000000056 ) ) ;
#221 = DIRECTION ( 'NONE',  ( -1.000000000000000000, 0.0000000000000000000, 0.0000000000000000000 ) ) ;
#222 = EDGE_CURVE ( 'NONE', #211, #66, #143, .T. ) ;
#223 = EDGE_CURVE ( 'NONE', #235, #211, #107, .T. ) ;
#224 = LOCAL_TIME ( 18, 23, 16.00000000000000000, #41 ) ;
#225 = PERSON_AND_ORGANIZATION ( #87, #229 ) ;
#226 = ORIENTED_EDGE ( 'NONE', *, *, #326, .T. ) ;
#227 = DIRECTION ( 'NONE',  ( 1.000000000000000000, 0.0000000000000000000, 0.0000000000000000000 ) ) ;
#228 = PRODUCT_DEFINITION_SHAPE ( 'NONE', 'NONE',  #168 ) ;
#229 = ORGANIZATION ( 'UNSPECIFIED', 'UNSPECIFIED', '' ) ;
#230 = LINE ( 'NONE', #353, #368 ) ;
#231 =( NAMED_UNIT ( * ) PLANE_ANGLE_UNIT ( ) SI_UNIT ( $, .RADIAN. ) );
#232 = PERSON_AND_ORGANIZATION ( #87, #229 ) ;
#233 = ORIENTED_EDGE ( 'NONE', *, *, #365, .T. ) ;
#234 = DATE_TIME_ROLE ( 'classification_date' ) ;
#235 = VERTEX_POINT ( 'NONE', #359 ) ;
#236 = CARTESIAN_POINT ( 'NONE',  ( -1.590000000000000080, 0.0000000000000000000, 0.1000000000000000056 ) ) ;
#237 = EDGE_CURVE ( 'NONE', #182, #39, #144, .T. ) ;
#238 = APPROVAL_DATE_TIME ( #91, #175 ) ;
#239 = DIRECTION ( 'NONE',  ( -1.000000000000000000, 0.0000000000000000000, 0.0000000000000000000 ) ) ;
#240 = UNCERTAINTY_MEASURE_WITH_UNIT (LENGTH_MEASURE( 1.000000000000000082E-05 ), #93, 'distance_accuracy_value', 'NONE');
#241 = ORIENTED_EDGE ( 'NONE', *, *, #35, .T. ) ;
#242 = LINE ( 'NONE', #12, #338 ) ;
#243 = DIRECTION ( 'NONE',  ( 0.0000000000000000000, 0.0000000000000000000, 1.000000000000000000 ) ) ;
#244 = ORIENTED_EDGE ( 'NONE', *, *, #30, .T. ) ;
#245 = CARTESIAN_POINT ( 'NONE',  ( 1.590000000000000080, 3.174999999999999822, 0.0000000000000000000 ) ) ;
#246 = EDGE_CURVE ( 'NONE', #281, #62, #84, .T. ) ;
#247 = PLANE ( 'NONE',  #256 ) ;
#248 = PLANE ( 'NONE',  #85 ) ;
#249 = VECTOR ( 'NONE', #191, 1000.000000000000000 ) ;
#250 = CC_DESIGN_DATE_AND_TIME_ASSIGNMENT ( #352, #234, ( #100 ) ) ;
#251 = LINE ( 'NONE', #172, #141 ) ;
#252 =( GEOMETRIC_REPRESENTATION_CONTEXT ( 3 ) GLOBAL_UNCERTAINTY_ASSIGNED_CONTEXT ( ( #240 ) ) GLOBAL_UNIT_ASSIGNED_CONTEXT ( ( #93, #231, #313 ) ) REPRESENTATION_CONTEXT ( 'NONE', 'WORKASPACE' ) );
#253 = CARTESIAN_POINT ( 'NONE',  ( -1.590000000000000080, 2.790000000000000036, -0.007500000000000000590 ) ) ;
#254 = DIRECTION ( 'NONE',  ( 0.0000000000000000000, 0.0000000000000000000, 1.000000000000000000 ) ) ;
#255 = CC_DESIGN_PERSON_AND_ORGANIZATION_ASSIGNMENT ( #347, #74, ( #151 ) ) ;
#256 = AXIS2_PLACEMENT_3D ( 'NONE', #51, #364, #243 ) ;
#257 = VECTOR ( 'NONE', #300, 1000.000000000000000 ) ;
#258 = LOCAL_TIME ( 18, 23, 16.00000000000000000, #355 ) ;
#259 = APPLICATION_CONTEXT ( 'configuration controlled 3d designs of mechanical parts and assemblies' ) ;
#260 = DIRECTION ( 'NONE',  ( 0.0000000000000000000, 0.0000000000000000000, 1.000000000000000000 ) ) ;
#261 = AXIS2_PLACEMENT_3D ( 'NONE', #108, #194, #171 ) ;
#262 = ORIENTED_EDGE ( 'NONE', *, *, #288, .T. ) ;
#263 = VECTOR ( 'NONE', #216, 1000.000000000000000 ) ;
#264 = VERTEX_POINT ( 'NONE', #173 ) ;
#265 = DATE_AND_TIME ( #15, #306 ) ;
#266 = ORIENTED_EDGE ( 'NONE', *, *, #16, .T. ) ;
#267 = APPLICATION_PROTOCOL_DEFINITION ( 'international standard', 'config_control_design', 1994, #198 ) ;
#268 = DIRECTION ( 'NONE',  ( 1.000000000000000000, 0.0000000000000000000, 0.0000000000000000000 ) ) ;
#269 = ORIENTED_EDGE ( 'NONE', *, *, #340, .T. ) ;
#270 = DIRECTION ( 'NONE',  ( 1.000000000000000000, 0.0000000000000000000, 0.0000000000000000000 ) ) ;
#271 = VECTOR ( 'NONE', #336, 1000.000000000000000 ) ;
#272 = DIRECTION ( 'NONE',  ( 0.0000000000000000000, 1.000000000000000000, 0.0000000000000000000 ) ) ;
#273 = FACE_OUTER_BOUND ( 'NONE', #212, .T. ) ;
#274 = FACE_OUTER_BOUND ( 'NONE', #69, .T. ) ;
#275 = CARTESIAN_POINT ( 'NONE',  ( 1.590000000000000080, -2.790000000000000036, 0.0000000000000000000 ) ) ;
#276 = ADVANCED_FACE ( 'NONE', ( #112 ), #303, .T. ) ;
#277 = CARTESIAN_POINT ( 'NONE',  ( 1.590000000000000080, 2.404999999999999805, 0.1000000000000000056 ) ) ;
#278 = CARTESIAN_POINT ( 'NONE',  ( 1.590000000000000080, -2.404999999999999805, 0.1000000000000000056 ) ) ;
#279 = CARTESIAN_POINT ( 'NONE',  ( -1.590000000000000080, -2.404999999999999805, -0.007500000000000000590 ) ) ;
#280 = DIRECTION ( 'NONE',  ( -1.000000000000000000, 0.0000000000000000000, 0.0000000000000000000 ) ) ;
#281 = VERTEX_POINT ( 'NONE', #278 ) ;
#282 = ADVANCED_BREP_SHAPE_REPRESENTATION ( 'TLR3AW10mƒ¶', ( #132, #310 ), #252 ) ;
#283 = AXIS2_PLACEMENT_3D ( 'NONE', #82, #280, #60 ) ;
#284 = EDGE_CURVE ( 'NONE', #264, #68, #138, .T. ) ;
#285 = LINE ( 'NONE', #207, #46 ) ;
#286 = AXIS2_PLACEMENT_3D ( 'NONE', #327, #76, #221 ) ;
#287 = DIRECTION ( 'NONE',  ( 0.0000000000000000000, 1.000000000000000000, 0.0000000000000000000 ) ) ;
#288 = EDGE_CURVE ( 'NONE', #182, #48, #26, .T. ) ;
#289 = ORIENTED_EDGE ( 'NONE', *, *, #223, .F. ) ;
#290 = VERTEX_POINT ( 'NONE', #305 ) ;
#291 = PERSON_AND_ORGANIZATION_ROLE ( 'creator' ) ;
#292 = ORIENTED_EDGE ( 'NONE', *, *, #29, .F. ) ;
#293 = ORIENTED_EDGE ( 'NONE', *, *, #42, .F. ) ;
#294 = VECTOR ( 'NONE', #219, 1000.000000000000000 ) ;
#295 = CARTESIAN_POINT ( 'NONE',  ( 1.590000000000000080, -3.174999999999999822, 0.0000000000000000000 ) ) ;
#296 = ORIENTED_EDGE ( 'NONE', *, *, #3, .T. ) ;
#297 = PERSON_AND_ORGANIZATION ( #87, #229 ) ;
#298 = AXIS2_PLACEMENT_3D ( 'NONE', #220, #254, #147 ) ;
#299 = CARTESIAN_POINT ( 'NONE',  ( -1.590000000000000080, 3.174999999999999822, 0.6500000000000000222 ) ) ;
#300 = DIRECTION ( 'NONE',  ( 0.0000000000000000000, 0.0000000000000000000, 1.000000000000000000 ) ) ;
#301 = ADVANCED_FACE ( 'NONE', ( #329 ), #170, .F. ) ;
#302 = PLANE ( 'NONE',  #78 ) ;
#303 = PLANE ( 'NONE',  #283 ) ;
#304 = FACE_OUTER_BOUND ( 'NONE', #137, .T. ) ;
#305 = CARTESIAN_POINT ( 'NONE',  ( 1.590000000000000080, -2.404999999999999805, -0.007500000000000000590 ) ) ;
#306 = LOCAL_TIME ( 18, 23, 16.00000000000000000, #125 ) ;
#307 = ADVANCED_FACE ( 'NONE', ( #57 ), #248, .T. ) ;
#308 = VECTOR ( 'NONE', #227, 1000.000000000000000 ) ;
#309 = ADVANCED_FACE ( 'NONE', ( #140 ), #332, .T. ) ;
#310 = AXIS2_PLACEMENT_3D ( 'NONE', #70, #322, #270 ) ;
#311 = SHAPE_DEFINITION_REPRESENTATION ( #228, #282 ) ;
#312 = ORIENTED_EDGE ( 'NONE', *, *, #365, .F. ) ;
#313 =( NAMED_UNIT ( * ) SI_UNIT ( $, .STERADIAN. ) SOLID_ANGLE_UNIT ( ) );
#314 = APPROVAL_ROLE ( '' ) ;
#315 = CARTESIAN_POINT ( 'NONE',  ( 0.0000000000000000000, 2.404999999999999805, 0.1000000000000000056 ) ) ;
#316 = MECHANICAL_CONTEXT ( 'NONE', #198, 'mechanical' ) ;
#317 = EDGE_CURVE ( 'NONE', #290, #162, #24, .T. ) ;
#318 = DIRECTION ( 'NONE',  ( 0.0000000000000000000, 0.0000000000000000000, 1.000000000000000000 ) ) ;
#319 = ORIENTED_EDGE ( 'NONE', *, *, #16, .F. ) ;
#320 = ORIENTED_EDGE ( 'NONE', *, *, #237, .F. ) ;
#321 = VERTEX_POINT ( 'NONE', #213 ) ;
#322 = DIRECTION ( 'NONE',  ( 0.0000000000000000000, 0.0000000000000000000, 1.000000000000000000 ) ) ;
#323 = ORIENTED_EDGE ( 'NONE', *, *, #86, .F. ) ;
#324 = ORIENTED_EDGE ( 'NONE', *, *, #284, .T. ) ;
#325 = DIRECTION ( 'NONE',  ( 0.0000000000000000000, -1.000000000000000000, 0.0000000000000000000 ) ) ;
#326 = EDGE_CURVE ( 'NONE', #162, #235, #210, .T. ) ;
#327 = CARTESIAN_POINT ( 'NONE',  ( 0.0000000000000000000, -2.790000000000000036, -0.007500000000000000590 ) ) ;
#328 = ORIENTED_EDGE ( 'NONE', *, *, #223, .T. ) ;
#329 = FACE_OUTER_BOUND ( 'NONE', #38, .T. ) ;
#330 = VECTOR ( 'NONE', #49, 1000.000000000000000 ) ;
#331 = DIRECTION ( 'NONE',  ( 0.0000000000000000000, 0.0000000000000000000, -1.000000000000000000 ) ) ;
#332 = PLANE ( 'NONE',  #199 ) ;
#333 = LINE ( 'NONE', #145, #249 ) ;
#334 = CARTESIAN_POINT ( 'NONE',  ( 0.0000000000000000000, -2.404999999999999805, -0.007500000000000000590 ) ) ;
#335 = LINE ( 'NONE', #253, #28 ) ;
#336 = DIRECTION ( 'NONE',  ( 1.000000000000000000, 0.0000000000000000000, 0.0000000000000000000 ) ) ;
#337 = PRODUCT_RELATED_PRODUCT_CATEGORY ( 'detail', '', ( #151 ) ) ;
#338 = VECTOR ( 'NONE', #325, 1000.000000000000000 ) ;
#339 = ADVANCED_FACE ( 'NONE', ( #273 ), #128, .T. ) ;
#340 = EDGE_CURVE ( 'NONE', #66, #68, #153, .T. ) ;
#341 = APPROVAL_ROLE ( '' ) ;
#342 = VECTOR ( 'NONE', #268, 1000.000000000000000 ) ;
#343 = CARTESIAN_POINT ( 'NONE',  ( 1.590000000000000080, 2.790000000000000036, -0.007500000000000000590 ) ) ;
#344 = CARTESIAN_POINT ( 'NONE',  ( 0.0000000000000000000, 2.404999999999999805, 0.0000000000000000000 ) ) ;
#345 = ADVANCED_FACE ( 'NONE', ( #135 ), #19, .T. ) ;
#346 = EDGE_LOOP ( 'NONE', ( #5, #148, #11, #99 ) ) ;
#347 = PERSON_AND_ORGANIZATION ( #87, #229 ) ;
#348 = PERSON_AND_ORGANIZATION ( #87, #229 ) ;
#349 = ORIENTED_EDGE ( 'NONE', *, *, #356, .T. ) ;
#350 = APPROVAL_STATUS ( 'not_yet_approved' ) ;
#351 = ORIENTED_EDGE ( 'NONE', *, *, #30, .F. ) ;
#352 = DATE_AND_TIME ( #72, #201 ) ;
#353 = CARTESIAN_POINT ( 'NONE',  ( 1.590000000000000080, 0.0000000000000000000, 0.6500000000000000222 ) ) ;
#354 = ORIENTED_EDGE ( 'NONE', *, *, #115, .F. ) ;
#355 = COORDINATED_UNIVERSAL_TIME_OFFSET ( 9, 0, .AHEAD. ) ;
#356 = EDGE_CURVE ( 'NONE', #62, #48, #205, .T. ) ;
#357 = CARTESIAN_POINT ( 'NONE',  ( 0.0000000000000000000, -3.174999999999999822, -0.007500000000000000590 ) ) ;
#358 = ORIENTED_EDGE ( 'NONE', *, *, #193, .T. ) ;
#359 = CARTESIAN_POINT ( 'NONE',  ( -1.590000000000000080, -3.174999999999999822, -0.007500000000000000590 ) ) ;
#360 = CC_DESIGN_PERSON_AND_ORGANIZATION_ASSIGNMENT ( #10, #7, ( #369 ) ) ;
#361 = DIRECTION ( 'NONE',  ( 0.0000000000000000000, -1.000000000000000000, 0.0000000000000000000 ) ) ;
#362 = CARTESIAN_POINT ( 'NONE',  ( -1.590000000000000080, -3.174999999999999822, 0.0000000000000000000 ) ) ;
#363 = APPROVAL_PERSON_ORGANIZATION ( #297, #142, #157 ) ;
#364 = DIRECTION ( 'NONE',  ( 0.0000000000000000000, 1.000000000000000000, 0.0000000000000000000 ) ) ;
#365 = EDGE_CURVE ( 'NONE', #208, #281, #242, .T. ) ;
#366 = DIRECTION ( 'NONE',  ( -1.000000000000000000, 0.0000000000000000000, 0.0000000000000000000 ) ) ;
#367 = CARTESIAN_POINT ( 'NONE',  ( 0.0000000000000000000, 2.790000000000000036, -0.007500000000000000590 ) ) ;
#368 = VECTOR ( 'NONE', #37, 1000.000000000000000 ) ;
#369 = PRODUCT_DEFINITION_FORMATION_WITH_SPECIFIED_SOURCE ( 'ANY', '', #151, .NOT_KNOWN. ) ;
ENDSEC;
END-ISO-10303-21;
