ISO-10303-21;
HEADER;
FILE_DESCRIPTION (( 'STEP AP203' ),
    '1' );
FILE_NAME ('TLRZ1E.STEP',
    '2019-11-13T09:25:26',
    ( '' ),
    ( '' ),
    'SwSTEP 2.0',
    'SolidWorks 2019',
    '' );
FILE_SCHEMA (( 'CONFIG_CONTROL_DESIGN' ));
ENDSEC;

DATA;
#1 = PERSON_AND_ORGANIZATION ( #122, #105 ) ;
#2 = LINE ( 'NONE', #346, #337 ) ;
#3 = PERSON_AND_ORGANIZATION ( #122, #105 ) ;
#4 = VECTOR ( 'NONE', #343, 1000.000000000000000 ) ;
#5 = CARTESIAN_POINT ( 'NONE',  ( -0.2500000000000000000, -0.2999999999999999889, 0.0000000000000000000 ) ) ;
#6 = CALENDAR_DATE ( 2019, 13, 11 ) ;
#7 = EDGE_CURVE ( 'NONE', #341, #192, #112, .T. ) ;
#8 = LINE ( 'NONE', #118, #42 ) ;
#9 = ADVANCED_BREP_SHAPE_REPRESENTATION ( 'TLRZ1E', ( #245, #262 ), #213 ) ;
#10 = LOCAL_TIME ( 18, 25, 26.00000000000000000, #177 ) ;
#11 = DIRECTION ( 'NONE',  ( 1.000000000000000000, 0.0000000000000000000, 0.0000000000000000000 ) ) ;
#12 = VECTOR ( 'NONE', #162, 1000.000000000000000 ) ;
#13 = CARTESIAN_POINT ( 'NONE',  ( -0.2500000000000000000, -0.4000000000000000222, 0.0000000000000000000 ) ) ;
#14 = CC_DESIGN_PERSON_AND_ORGANIZATION_ASSIGNMENT ( #3, #202, ( #163 ) ) ;
#15 = EDGE_LOOP ( 'NONE', ( #304, #76, #45, #133 ) ) ;
#16 = EDGE_CURVE ( 'NONE', #192, #103, #168, .T. ) ;
#17 = DIRECTION ( 'NONE',  ( 0.0000000000000000000, 0.4984711242580829871, -0.8669063030575350215 ) ) ;
#18 = DIRECTION ( 'NONE',  ( 1.000000000000000000, 0.0000000000000000000, 0.0000000000000000000 ) ) ;
#19 = CARTESIAN_POINT ( 'NONE',  ( 0.2500000000000000000, -0.4000000000000000222, 0.0000000000000000000 ) ) ;
#20 = DIRECTION ( 'NONE',  ( 0.0000000000000000000, -1.000000000000000000, 0.0000000000000000000 ) ) ;
#21 = DIRECTION ( 'NONE',  ( 0.0000000000000000000, 0.0000000000000000000, -1.000000000000000000 ) ) ;
#22 = ORIENTED_EDGE ( 'NONE', *, *, #289, .T. ) ;
#23 = DIRECTION ( 'NONE',  ( -1.000000000000000000, 0.0000000000000000000, 0.0000000000000000000 ) ) ;
#24 = APPROVAL ( #175, 'UNSPECIFIED' ) ;
#25 = ORIENTED_EDGE ( 'NONE', *, *, #285, .F. ) ;
#26 = AXIS2_PLACEMENT_3D ( 'NONE', #66, #295, #28 ) ;
#27 = MECHANICAL_CONTEXT ( 'NONE', #59, 'mechanical' ) ;
#28 = DIRECTION ( 'NONE',  ( 0.0000000000000000000, -0.4984711242580829871, -0.8669063030575350215 ) ) ;
#29 = PERSON_AND_ORGANIZATION ( #122, #105 ) ;
#30 = PLANE ( 'NONE',  #132 ) ;
#31 = DIRECTION ( 'NONE',  ( 0.0000000000000000000, 1.000000000000000000, 0.0000000000000000000 ) ) ;
#32 = PERSON_AND_ORGANIZATION ( #122, #105 ) ;
#33 = CARTESIAN_POINT ( 'NONE',  ( 0.2500000000000000000, 0.5000000000000000000, 0.0000000000000000000 ) ) ;
#34 = CALENDAR_DATE ( 2019, 13, 11 ) ;
#35 = DIRECTION ( 'NONE',  ( 0.0000000000000000000, 0.0000000000000000000, 1.000000000000000000 ) ) ;
#36 = APPROVAL_ROLE ( '' ) ;
#37 = DIRECTION ( 'NONE',  ( 0.0000000000000000000, 0.0000000000000000000, 1.000000000000000000 ) ) ;
#38 = VERTEX_POINT ( 'NONE', #142 ) ;
#39 = ORIENTED_EDGE ( 'NONE', *, *, #148, .T. ) ;
#40 = EDGE_CURVE ( 'NONE', #185, #83, #53, .T. ) ;
#41 = ORIENTED_EDGE ( 'NONE', *, *, #69, .F. ) ;
#42 = VECTOR ( 'NONE', #120, 1000.000000000000000 ) ;
#43 = EDGE_LOOP ( 'NONE', ( #198, #362, #227, #115 ) ) ;
#44 = EDGE_CURVE ( 'NONE', #341, #310, #161, .T. ) ;
#45 = ORIENTED_EDGE ( 'NONE', *, *, #289, .F. ) ;
#46 = CC_DESIGN_SECURITY_CLASSIFICATION ( #253, ( #281 ) ) ;
#47 = LINE ( 'NONE', #19, #12 ) ;
#48 = VERTEX_POINT ( 'NONE', #137 ) ;
#49 = ORIENTED_EDGE ( 'NONE', *, *, #182, .T. ) ;
#50 =( NAMED_UNIT ( * ) PLANE_ANGLE_UNIT ( ) SI_UNIT ( $, .RADIAN. ) );
#51 = EDGE_CURVE ( 'NONE', #309, #38, #365, .T. ) ;
#52 = EDGE_CURVE ( 'NONE', #286, #110, #223, .T. ) ;
#53 = LINE ( 'NONE', #254, #247 ) ;
#54 = ORIENTED_EDGE ( 'NONE', *, *, #40, .T. ) ;
#55 = CLOSED_SHELL ( 'NONE', ( #274, #214, #261, #141, #271, #84, #77, #340, #318, #205 ) ) ;
#56 = CARTESIAN_POINT ( 'NONE',  ( -0.2500000000000000000, 0.2999999999999999889, 0.0000000000000000000 ) ) ;
#57 = FACE_OUTER_BOUND ( 'NONE', #272, .T. ) ;
#58 = DATE_AND_TIME ( #6, #328 ) ;
#59 = APPLICATION_CONTEXT ( 'configuration controlled 3d designs of mechanical parts and assemblies' ) ;
#60 = DIRECTION ( 'NONE',  ( -1.000000000000000000, 0.0000000000000000000, 0.0000000000000000000 ) ) ;
#61 = PERSON_AND_ORGANIZATION_ROLE ( 'classification_officer' ) ;
#62 = DIRECTION ( 'NONE',  ( 0.0000000000000000000, 0.0000000000000000000, 1.000000000000000000 ) ) ;
#63 = APPROVAL_STATUS ( 'not_yet_approved' ) ;
#64 = EDGE_CURVE ( 'NONE', #83, #192, #80, .T. ) ;
#65 = VECTOR ( 'NONE', #127, 1000.000000000000000 ) ;
#66 = CARTESIAN_POINT ( 'NONE',  ( -0.2500000000000000000, -0.2999999999999999889, 0.0000000000000000000 ) ) ;
#67 = DATE_TIME_ROLE ( 'creation_date' ) ;
#68 = DIRECTION ( 'NONE',  ( 0.0000000000000000000, 0.0000000000000000000, 1.000000000000000000 ) ) ;
#69 = EDGE_CURVE ( 'NONE', #48, #286, #8, .T. ) ;
#70 = DIRECTION ( 'NONE',  ( 0.0000000000000000000, 0.0000000000000000000, 1.000000000000000000 ) ) ;
#71 = UNCERTAINTY_MEASURE_WITH_UNIT (LENGTH_MEASURE( 1.000000000000000082E-05 ), #308, 'distance_accuracy_value', 'NONE');
#72 = VECTOR ( 'NONE', #89, 1000.000000000000000 ) ;
#73 = ORIENTED_EDGE ( 'NONE', *, *, #44, .T. ) ;
#74 = ORIENTED_EDGE ( 'NONE', *, *, #357, .T. ) ;
#75 = VECTOR ( 'NONE', #338, 1000.000000000000000 ) ;
#76 = ORIENTED_EDGE ( 'NONE', *, *, #124, .T. ) ;
#77 = ADVANCED_FACE ( 'NONE', ( #351 ), #179, .T. ) ;
#78 = ORIENTED_EDGE ( 'NONE', *, *, #64, .F. ) ;
#79 = PLANE ( 'NONE',  #218 ) ;
#80 = LINE ( 'NONE', #201, #292 ) ;
#81 = LINE ( 'NONE', #143, #75 ) ;
#82 = VECTOR ( 'NONE', #335, 1000.000000000000000 ) ;
#83 = VERTEX_POINT ( 'NONE', #231 ) ;
#84 = ADVANCED_FACE ( 'NONE', ( #236 ), #258, .T. ) ;
#85 = CARTESIAN_POINT ( 'NONE',  ( -0.2500000000000000000, -0.5000000000000000000, 0.0000000000000000000 ) ) ;
#86 = EDGE_LOOP ( 'NONE', ( #88, #164, #217, #358 ) ) ;
#87 = DIRECTION ( 'NONE',  ( 1.000000000000000000, 0.0000000000000000000, 0.0000000000000000000 ) ) ;
#88 = ORIENTED_EDGE ( 'NONE', *, *, #322, .F. ) ;
#89 = DIRECTION ( 'NONE',  ( 0.0000000000000000000, -1.000000000000000000, 0.0000000000000000000 ) ) ;
#90 = EDGE_CURVE ( 'NONE', #359, #309, #147, .T. ) ;
#91 = CC_DESIGN_PERSON_AND_ORGANIZATION_ASSIGNMENT ( #259, #61, ( #253 ) ) ;
#92 = CARTESIAN_POINT ( 'NONE',  ( 0.0000000000000000000, -0.5000000000000000000, 0.0000000000000000000 ) ) ;
#93 = PERSON_AND_ORGANIZATION ( #122, #105 ) ;
#94 = LINE ( 'NONE', #260, #65 ) ;
#95 = LINE ( 'NONE', #176, #226 ) ;
#96 = APPROVAL_ROLE ( '' ) ;
#97 = LINE ( 'NONE', #369, #269 ) ;
#98 = SECURITY_CLASSIFICATION_LEVEL ( 'unclassified' ) ;
#99 = VECTOR ( 'NONE', #234, 1000.000000000000000 ) ;
#100 = DIRECTION ( 'NONE',  ( 1.000000000000000000, 0.0000000000000000000, 0.0000000000000000000 ) ) ;
#101 = PERSON_AND_ORGANIZATION_ROLE ( 'creator' ) ;
#102 = CARTESIAN_POINT ( 'NONE',  ( -0.2500000000000000000, -0.5000000000000000000, 0.0000000000000000000 ) ) ;
#103 = VERTEX_POINT ( 'NONE', #152 ) ;
#104 = APPROVAL ( #63, 'UNSPECIFIED' ) ;
#105 = ORGANIZATION ( 'UNSPECIFIED', 'UNSPECIFIED', '' ) ;
#106 = ORIENTED_EDGE ( 'NONE', *, *, #285, .T. ) ;
#107 = VECTOR ( 'NONE', #301, 1000.000000000000000 ) ;
#108 = ORIENTED_EDGE ( 'NONE', *, *, #90, .F. ) ;
#109 = CARTESIAN_POINT ( 'NONE',  ( 0.2500000000000000000, 0.1849999999999999978, 0.2000000000000000111 ) ) ;
#110 = VERTEX_POINT ( 'NONE', #288 ) ;
#111 = CARTESIAN_POINT ( 'NONE',  ( 0.2500000000000000000, 0.5000000000000000000, 0.4000000000000000222 ) ) ;
#112 = LINE ( 'NONE', #307, #327 ) ;
#113 = CARTESIAN_POINT ( 'NONE',  ( 0.0000000000000000000, 0.0000000000000000000, 0.2000000000000000111 ) ) ;
#114 = VECTOR ( 'NONE', #20, 1000.000000000000000 ) ;
#115 = ORIENTED_EDGE ( 'NONE', *, *, #130, .F. ) ;
#116 = ORIENTED_EDGE ( 'NONE', *, *, #7, .T. ) ;
#117 = CARTESIAN_POINT ( 'NONE',  ( 0.2500000000000000000, -0.5000000000000000000, 0.0000000000000000000 ) ) ;
#118 = CARTESIAN_POINT ( 'NONE',  ( -0.2500000000000000000, -0.1849999999999999978, 0.2000000000000000111 ) ) ;
#119 = PERSON_AND_ORGANIZATION ( #122, #105 ) ;
#120 = DIRECTION ( 'NONE',  ( 1.000000000000000000, 0.0000000000000000000, 0.0000000000000000000 ) ) ;
#121 = COORDINATED_UNIVERSAL_TIME_OFFSET ( 9, 0, .AHEAD. ) ;
#122 = PERSON ( 'UNSPECIFIED', 'UNSPECIFIED', 'UNSPECIFIED', ('UNSPECIFIED'), ('UNSPECIFIED'), ('UNSPECIFIED') ) ;
#123 = CARTESIAN_POINT ( 'NONE',  ( 0.2500000000000000000, 0.2999999999999999889, 0.0000000000000000000 ) ) ;
#124 = EDGE_CURVE ( 'NONE', #38, #187, #264, .T. ) ;
#125 = CARTESIAN_POINT ( 'NONE',  ( 0.0000000000000000000, -0.5000000000000000000, 0.4000000000000000222 ) ) ;
#126 = CC_DESIGN_APPROVAL ( #334, ( #281 ) ) ;
#127 = DIRECTION ( 'NONE',  ( 0.0000000000000000000, 0.0000000000000000000, 1.000000000000000000 ) ) ;
#128 = AXIS2_PLACEMENT_3D ( 'NONE', #237, #35, #323 ) ;
#129 = LINE ( 'NONE', #268, #160 ) ;
#130 = EDGE_CURVE ( 'NONE', #103, #185, #95, .T. ) ;
#131 = ORIENTED_EDGE ( 'NONE', *, *, #64, .T. ) ;
#132 = AXIS2_PLACEMENT_3D ( 'NONE', #13, #297, #70 ) ;
#133 = ORIENTED_EDGE ( 'NONE', *, *, #151, .T. ) ;
#134 = EDGE_CURVE ( 'NONE', #185, #309, #94, .T. ) ;
#135 = ORIENTED_EDGE ( 'NONE', *, *, #16, .T. ) ;
#136 = CARTESIAN_POINT ( 'NONE',  ( -0.2500000000000000000, -0.4000000000000000222, 0.0000000000000000000 ) ) ;
#137 = CARTESIAN_POINT ( 'NONE',  ( -0.2500000000000000000, -0.1849999999999999978, 0.2000000000000000111 ) ) ;
#138 = DIRECTION ( 'NONE',  ( -1.000000000000000000, 0.0000000000000000000, 0.0000000000000000000 ) ) ;
#139 = ORIENTED_EDGE ( 'NONE', *, *, #184, .F. ) ;
#140 = FACE_OUTER_BOUND ( 'NONE', #15, .T. ) ;
#141 = ADVANCED_FACE ( 'NONE', ( #263 ), #204, .T. ) ;
#142 = CARTESIAN_POINT ( 'NONE',  ( 0.2500000000000000000, -0.5000000000000000000, 0.4000000000000000222 ) ) ;
#143 = CARTESIAN_POINT ( 'NONE',  ( -0.2500000000000000000, 0.0000000000000000000, 0.4000000000000000222 ) ) ;
#144 = VECTOR ( 'NONE', #157, 1000.000000000000000 ) ;
#145 = ORIENTED_EDGE ( 'NONE', *, *, #44, .F. ) ;
#146 = FACE_OUTER_BOUND ( 'NONE', #360, .T. ) ;
#147 = LINE ( 'NONE', #150, #4 ) ;
#148 = EDGE_CURVE ( 'NONE', #48, #172, #155, .T. ) ;
#149 = APPROVAL_DATE_TIME ( #352, #334 ) ;
#150 = CARTESIAN_POINT ( 'NONE',  ( 0.0000000000000000000, 0.5000000000000000000, 0.4000000000000000222 ) ) ;
#151 = EDGE_CURVE ( 'NONE', #244, #363, #348, .T. ) ;
#152 = CARTESIAN_POINT ( 'NONE',  ( -0.2500000000000000000, 0.5000000000000000000, 0.0000000000000000000 ) ) ;
#153 = LOCAL_TIME ( 18, 25, 26.00000000000000000, #232 ) ;
#154 = CARTESIAN_POINT ( 'NONE',  ( -0.2500000000000000000, 0.2999999999999999889, 0.0000000000000000000 ) ) ;
#155 = LINE ( 'NONE', #183, #193 ) ;
#156 = CALENDAR_DATE ( 2019, 13, 11 ) ;
#157 = DIRECTION ( 'NONE',  ( 0.0000000000000000000, 1.000000000000000000, 0.0000000000000000000 ) ) ;
#158 = EDGE_CURVE ( 'NONE', #363, #38, #97, .T. ) ;
#159 = ORIENTED_EDGE ( 'NONE', *, *, #52, .T. ) ;
#160 = VECTOR ( 'NONE', #37, 1000.000000000000000 ) ;
#161 = LINE ( 'NONE', #276, #355 ) ;
#162 = DIRECTION ( 'NONE',  ( 0.0000000000000000000, 1.000000000000000000, 0.0000000000000000000 ) ) ;
#163 = PRODUCT ( 'TLRZ1E', 'TLRZ1E', '', ( #27 ) ) ;
#164 = ORIENTED_EDGE ( 'NONE', *, *, #151, .F. ) ;
#165 = CARTESIAN_POINT ( 'NONE',  ( 0.0000000000000000000, -0.5000000000000000000, 0.0000000000000000000 ) ) ;
#166 = ORIENTED_EDGE ( 'NONE', *, *, #130, .T. ) ;
#167 =( NAMED_UNIT ( * ) SI_UNIT ( $, .STERADIAN. ) SOLID_ANGLE_UNIT ( ) );
#168 = LINE ( 'NONE', #280, #107 ) ;
#169 = LOCAL_TIME ( 18, 25, 26.00000000000000000, #294 ) ;
#170 = DIRECTION ( 'NONE',  ( 0.0000000000000000000, 0.0000000000000000000, -1.000000000000000000 ) ) ;
#171 = AXIS2_PLACEMENT_3D ( 'NONE', #56, #191, #17 ) ;
#172 = VERTEX_POINT ( 'NONE', #5 ) ;
#173 = PERSON_AND_ORGANIZATION_ROLE ( 'creator' ) ;
#174 = CARTESIAN_POINT ( 'NONE',  ( 0.2500000000000000000, -0.4000000000000000222, 0.0000000000000000000 ) ) ;
#175 = APPROVAL_STATUS ( 'not_yet_approved' ) ;
#176 = CARTESIAN_POINT ( 'NONE',  ( 0.0000000000000000000, 0.5000000000000000000, 0.0000000000000000000 ) ) ;
#177 = COORDINATED_UNIVERSAL_TIME_OFFSET ( 9, 0, .AHEAD. ) ;
#178 = PRODUCT_DEFINITION ( 'UNKNOWN', '', #281, #356 ) ;
#179 = PLANE ( 'NONE',  #312 ) ;
#180 = APPROVAL_DATE_TIME ( #291, #104 ) ;
#181 = DIRECTION ( 'NONE',  ( 0.0000000000000000000, 0.0000000000000000000, -1.000000000000000000 ) ) ;
#182 = EDGE_CURVE ( 'NONE', #341, #48, #2, .T. ) ;
#183 = CARTESIAN_POINT ( 'NONE',  ( -0.2500000000000000000, -0.2999999999999999889, 0.0000000000000000000 ) ) ;
#184 = EDGE_CURVE ( 'NONE', #310, #83, #207, .T. ) ;
#185 = VERTEX_POINT ( 'NONE', #33 ) ;
#186 = ORIENTED_EDGE ( 'NONE', *, *, #158, .F. ) ;
#187 = VERTEX_POINT ( 'NONE', #320 ) ;
#188 = PRODUCT_DEFINITION_SHAPE ( 'NONE', 'NONE',  #178 ) ;
#189 = AXIS2_PLACEMENT_3D ( 'NONE', #199, #257, #23 ) ;
#190 = ORIENTED_EDGE ( 'NONE', *, *, #233, .F. ) ;
#191 = DIRECTION ( 'NONE',  ( 0.0000000000000000000, 0.8669063030575350215, 0.4984711242580829871 ) ) ;
#192 = VERTEX_POINT ( 'NONE', #154 ) ;
#193 = VECTOR ( 'NONE', #316, 1000.000000000000000 ) ;
#194 = ORIENTED_EDGE ( 'NONE', *, *, #52, .F. ) ;
#195 = ORIENTED_EDGE ( 'NONE', *, *, #134, .T. ) ;
#196 = CC_DESIGN_PERSON_AND_ORGANIZATION_ASSIGNMENT ( #267, #344, ( #281 ) ) ;
#197 = LOCAL_TIME ( 18, 25, 26.00000000000000000, #242 ) ;
#198 = ORIENTED_EDGE ( 'NONE', *, *, #222, .T. ) ;
#199 = CARTESIAN_POINT ( 'NONE',  ( 0.0000000000000000000, -0.4000000000000000222, 0.0000000000000000000 ) ) ;
#200 = APPLICATION_CONTEXT ( 'configuration controlled 3d designs of mechanical parts and assemblies' ) ;
#201 = CARTESIAN_POINT ( 'NONE',  ( 0.0000000000000000000, 0.2999999999999999889, 0.0000000000000000000 ) ) ;
#202 = PERSON_AND_ORGANIZATION_ROLE ( 'design_owner' ) ;
#203 = DIRECTION ( 'NONE',  ( 0.0000000000000000000, -1.000000000000000000, 0.0000000000000000000 ) ) ;
#204 = PLANE ( 'NONE',  #255 ) ;
#205 = ADVANCED_FACE ( 'NONE', ( #208 ), #240, .F. ) ;
#206 = APPROVAL_ROLE ( '' ) ;
#207 = LINE ( 'NONE', #123, #273 ) ;
#208 = FACE_OUTER_BOUND ( 'NONE', #300, .T. ) ;
#209 = CALENDAR_DATE ( 2019, 13, 11 ) ;
#210 = EDGE_CURVE ( 'NONE', #110, #172, #315, .T. ) ;
#211 = FACE_OUTER_BOUND ( 'NONE', #86, .T. ) ;
#212 = ORIENTED_EDGE ( 'NONE', *, *, #322, .T. ) ;
#213 =( GEOMETRIC_REPRESENTATION_CONTEXT ( 3 ) GLOBAL_UNCERTAINTY_ASSIGNED_CONTEXT ( ( #71 ) ) GLOBAL_UNIT_ASSIGNED_CONTEXT ( ( #308, #50, #167 ) ) REPRESENTATION_CONTEXT ( 'NONE', 'WORKASPACE' ) );
#214 = ADVANCED_FACE ( 'NONE', ( #57 ), #30, .T. ) ;
#215 = ORIENTED_EDGE ( 'NONE', *, *, #7, .F. ) ;
#216 = CC_DESIGN_APPROVAL ( #104, ( #253 ) ) ;
#217 = ORIENTED_EDGE ( 'NONE', *, *, #357, .F. ) ;
#218 = AXIS2_PLACEMENT_3D ( 'NONE', #342, #170, #366 ) ;
#219 = CC_DESIGN_PERSON_AND_ORGANIZATION_ASSIGNMENT ( #1, #173, ( #178 ) ) ;
#220 = DIRECTION ( 'NONE',  ( 0.0000000000000000000, 0.4984711242580829871, -0.8669063030575350215 ) ) ;
#221 = CARTESIAN_POINT ( 'NONE',  ( -0.2500000000000000000, 0.5000000000000000000, 0.4000000000000000222 ) ) ;
#222 = EDGE_CURVE ( 'NONE', #103, #359, #129, .T. ) ;
#223 = LINE ( 'NONE', #251, #82 ) ;
#224 = ORIENTED_EDGE ( 'NONE', *, *, #69, .T. ) ;
#225 = LINE ( 'NONE', #136, #72 ) ;
#226 = VECTOR ( 'NONE', #11, 1000.000000000000000 ) ;
#227 = ORIENTED_EDGE ( 'NONE', *, *, #134, .F. ) ;
#228 = CARTESIAN_POINT ( 'NONE',  ( 0.0000000000000000000, 0.0000000000000000000, 0.0000000000000000000 ) ) ;
#229 = ORIENTED_EDGE ( 'NONE', *, *, #210, .T. ) ;
#230 = PLANE ( 'NONE',  #171 ) ;
#231 = CARTESIAN_POINT ( 'NONE',  ( 0.2500000000000000000, 0.2999999999999999889, 0.0000000000000000000 ) ) ;
#232 = COORDINATED_UNIVERSAL_TIME_OFFSET ( 9, 0, .AHEAD. ) ;
#233 = EDGE_CURVE ( 'NONE', #286, #310, #243, .T. ) ;
#234 = DIRECTION ( 'NONE',  ( 1.000000000000000000, 0.0000000000000000000, 0.0000000000000000000 ) ) ;
#235 = APPROVAL_STATUS ( 'not_yet_approved' ) ;
#236 = FACE_OUTER_BOUND ( 'NONE', #332, .T. ) ;
#237 = CARTESIAN_POINT ( 'NONE',  ( 0.0000000000000000000, 0.0000000000000000000, 0.4000000000000000222 ) ) ;
#238 = CC_DESIGN_APPROVAL ( #24, ( #178 ) ) ;
#239 = CALENDAR_DATE ( 2019, 13, 11 ) ;
#240 = PLANE ( 'NONE',  #26 ) ;
#241 = AXIS2_PLACEMENT_3D ( 'NONE', #165, #368, #21 ) ;
#242 = COORDINATED_UNIVERSAL_TIME_OFFSET ( 9, 0, .AHEAD. ) ;
#243 = LINE ( 'NONE', #353, #144 ) ;
#244 = VERTEX_POINT ( 'NONE', #102 ) ;
#245 = MANIFOLD_SOLID_BREP ( '²ÝÎß°Ä1', #55 ) ;
#246 = ORIENTED_EDGE ( 'NONE', *, *, #40, .F. ) ;
#247 = VECTOR ( 'NONE', #278, 1000.000000000000000 ) ;
#248 = ORIENTED_EDGE ( 'NONE', *, *, #184, .T. ) ;
#249 = ORIENTED_EDGE ( 'NONE', *, *, #16, .F. ) ;
#250 = CARTESIAN_POINT ( 'NONE',  ( 0.2500000000000000000, 0.0000000000000000000, 0.4000000000000000222 ) ) ;
#251 = CARTESIAN_POINT ( 'NONE',  ( 0.2500000000000000000, -0.2999999999999999889, 0.0000000000000000000 ) ) ;
#252 = PLANE ( 'NONE',  #241 ) ;
#253 = SECURITY_CLASSIFICATION ( '', '', #98 ) ;
#254 = CARTESIAN_POINT ( 'NONE',  ( 0.2500000000000000000, 0.4000000000000000222, 0.0000000000000000000 ) ) ;
#255 = AXIS2_PLACEMENT_3D ( 'NONE', #174, #100, #181 ) ;
#256 = EDGE_LOOP ( 'NONE', ( #339, #186, #212, #194, #282, #248, #246, #195 ) ) ;
#257 = DIRECTION ( 'NONE',  ( 0.0000000000000000000, 0.0000000000000000000, -1.000000000000000000 ) ) ;
#258 = PLANE ( 'NONE',  #128 ) ;
#259 = PERSON_AND_ORGANIZATION ( #122, #105 ) ;
#260 = CARTESIAN_POINT ( 'NONE',  ( 0.2500000000000000000, 0.5000000000000000000, 0.2000000000000000111 ) ) ;
#261 = ADVANCED_FACE ( 'NONE', ( #211 ), #325, .T. ) ;
#262 = AXIS2_PLACEMENT_3D ( 'NONE', #228, #283, #87 ) ;
#263 = FACE_OUTER_BOUND ( 'NONE', #256, .T. ) ;
#264 = LINE ( 'NONE', #125, #319 ) ;
#265 = CC_DESIGN_PERSON_AND_ORGANIZATION_ASSIGNMENT ( #32, #101, ( #281 ) ) ;
#266 = CARTESIAN_POINT ( 'NONE',  ( 0.0000000000000000000, 0.5000000000000000000, 0.2000000000000000111 ) ) ;
#267 = PERSON_AND_ORGANIZATION ( #122, #105 ) ;
#268 = CARTESIAN_POINT ( 'NONE',  ( -0.2500000000000000000, 0.5000000000000000000, 0.2000000000000000111 ) ) ;
#269 = VECTOR ( 'NONE', #62, 1000.000000000000000 ) ;
#270 = PRODUCT_RELATED_PRODUCT_CATEGORY ( 'detail', '', ( #163 ) ) ;
#271 = ADVANCED_FACE ( 'NONE', ( #146 ), #361, .T. ) ;
#272 = EDGE_LOOP ( 'NONE', ( #22, #106, #367, #249, #215, #49, #39, #74 ) ) ;
#273 = VECTOR ( 'NONE', #293, 1000.000000000000000 ) ;
#274 = ADVANCED_FACE ( 'NONE', ( #140 ), #252, .T. ) ;
#275 = FACE_OUTER_BOUND ( 'NONE', #354, .T. ) ;
#276 = CARTESIAN_POINT ( 'NONE',  ( -0.2500000000000000000, 0.1849999999999999978, 0.2000000000000000111 ) ) ;
#277 = LINE ( 'NONE', #85, #284 ) ;
#278 = DIRECTION ( 'NONE',  ( 0.0000000000000000000, -1.000000000000000000, 0.0000000000000000000 ) ) ;
#279 = DIRECTION ( 'NONE',  ( 0.0000000000000000000, 0.0000000000000000000, -1.000000000000000000 ) ) ;
#280 = CARTESIAN_POINT ( 'NONE',  ( -0.2500000000000000000, 0.4000000000000000222, 0.0000000000000000000 ) ) ;
#281 = PRODUCT_DEFINITION_FORMATION_WITH_SPECIFIED_SOURCE ( 'ANY', '', #163, .NOT_KNOWN. ) ;
#282 = ORIENTED_EDGE ( 'NONE', *, *, #233, .T. ) ;
#283 = DIRECTION ( 'NONE',  ( 0.0000000000000000000, 0.0000000000000000000, 1.000000000000000000 ) ) ;
#284 = VECTOR ( 'NONE', #364, 1000.000000000000000 ) ;
#285 = EDGE_CURVE ( 'NONE', #187, #359, #81, .T. ) ;
#286 = VERTEX_POINT ( 'NONE', #311 ) ;
#287 = APPLICATION_PROTOCOL_DEFINITION ( 'international standard', 'config_control_design', 1994, #200 ) ;
#288 = CARTESIAN_POINT ( 'NONE',  ( 0.2500000000000000000, -0.2999999999999999889, 0.0000000000000000000 ) ) ;
#289 = EDGE_CURVE ( 'NONE', #244, #187, #277, .T. ) ;
#290 = DIRECTION ( 'NONE',  ( -1.000000000000000000, 0.0000000000000000000, 0.0000000000000000000 ) ) ;
#291 = DATE_AND_TIME ( #209, #10 ) ;
#292 = VECTOR ( 'NONE', #60, 1000.000000000000000 ) ;
#293 = DIRECTION ( 'NONE',  ( 0.0000000000000000000, 0.4984711242580829871, -0.8669063030575350215 ) ) ;
#294 = COORDINATED_UNIVERSAL_TIME_OFFSET ( 9, 0, .AHEAD. ) ;
#295 = DIRECTION ( 'NONE',  ( 0.0000000000000000000, -0.8669063030575350215, 0.4984711242580829871 ) ) ;
#296 = DATE_TIME_ROLE ( 'classification_date' ) ;
#297 = DIRECTION ( 'NONE',  ( -1.000000000000000000, 0.0000000000000000000, 0.0000000000000000000 ) ) ;
#298 = EDGE_LOOP ( 'NONE', ( #139, #145, #116, #78 ) ) ;
#299 = ORIENTED_EDGE ( 'NONE', *, *, #51, .F. ) ;
#300 = EDGE_LOOP ( 'NONE', ( #159, #229, #326, #224 ) ) ;
#301 = DIRECTION ( 'NONE',  ( 0.0000000000000000000, 1.000000000000000000, 0.0000000000000000000 ) ) ;
#302 = FACE_OUTER_BOUND ( 'NONE', #298, .T. ) ;
#303 = APPROVAL_PERSON_ORGANIZATION ( #29, #334, #96 ) ;
#304 = ORIENTED_EDGE ( 'NONE', *, *, #158, .T. ) ;
#305 = APPROVAL_PERSON_ORGANIZATION ( #93, #24, #206 ) ;
#306 = APPLICATION_PROTOCOL_DEFINITION ( 'international standard', 'config_control_design', 1994, #59 ) ;
#307 = CARTESIAN_POINT ( 'NONE',  ( -0.2500000000000000000, 0.2999999999999999889, 0.0000000000000000000 ) ) ;
#308 =( LENGTH_UNIT ( ) NAMED_UNIT ( * ) SI_UNIT ( .MILLI., .METRE. ) );
#309 = VERTEX_POINT ( 'NONE', #111 ) ;
#310 = VERTEX_POINT ( 'NONE', #109 ) ;
#311 = CARTESIAN_POINT ( 'NONE',  ( 0.2500000000000000000, -0.1849999999999999978, 0.2000000000000000111 ) ) ;
#312 = AXIS2_PLACEMENT_3D ( 'NONE', #266, #31, #68 ) ;
#313 = CARTESIAN_POINT ( 'NONE',  ( 0.0000000000000000000, -0.2999999999999999889, 0.0000000000000000000 ) ) ;
#314 = SHAPE_DEFINITION_REPRESENTATION ( #188, #9 ) ;
#315 = LINE ( 'NONE', #313, #350 ) ;
#316 = DIRECTION ( 'NONE',  ( 0.0000000000000000000, -0.4984711242580829871, -0.8669063030575350215 ) ) ;
#317 = DATE_AND_TIME ( #34, #169 ) ;
#318 = ADVANCED_FACE ( 'NONE', ( #302 ), #230, .F. ) ;
#319 = VECTOR ( 'NONE', #345, 1000.000000000000000 ) ;
#320 = CARTESIAN_POINT ( 'NONE',  ( -0.2500000000000000000, -0.5000000000000000000, 0.4000000000000000222 ) ) ;
#321 = DATE_AND_TIME ( #156, #153 ) ;
#322 = EDGE_CURVE ( 'NONE', #363, #110, #47, .T. ) ;
#323 = DIRECTION ( 'NONE',  ( 1.000000000000000000, 0.0000000000000000000, 0.0000000000000000000 ) ) ;
#324 = CC_DESIGN_DATE_AND_TIME_ASSIGNMENT ( #317, #296, ( #253 ) ) ;
#325 = PLANE ( 'NONE',  #189 ) ;
#326 = ORIENTED_EDGE ( 'NONE', *, *, #148, .F. ) ;
#327 = VECTOR ( 'NONE', #220, 1000.000000000000000 ) ;
#328 = LOCAL_TIME ( 18, 25, 26.00000000000000000, #121 ) ;
#329 = CC_DESIGN_DATE_AND_TIME_ASSIGNMENT ( #58, #67, ( #178 ) ) ;
#330 = ORIENTED_EDGE ( 'NONE', *, *, #182, .F. ) ;
#331 = AXIS2_PLACEMENT_3D ( 'NONE', #113, #279, #138 ) ;
#332 = EDGE_LOOP ( 'NONE', ( #336, #299, #108, #25 ) ) ;
#333 = CARTESIAN_POINT ( 'NONE',  ( -0.2500000000000000000, 0.1849999999999999978, 0.2000000000000000111 ) ) ;
#334 = APPROVAL ( #235, 'UNSPECIFIED' ) ;
#335 = DIRECTION ( 'NONE',  ( 0.0000000000000000000, -0.4984711242580829871, -0.8669063030575350215 ) ) ;
#336 = ORIENTED_EDGE ( 'NONE', *, *, #124, .F. ) ;
#337 = VECTOR ( 'NONE', #203, 1000.000000000000000 ) ;
#338 = DIRECTION ( 'NONE',  ( 0.0000000000000000000, 1.000000000000000000, 0.0000000000000000000 ) ) ;
#339 = ORIENTED_EDGE ( 'NONE', *, *, #51, .T. ) ;
#340 = ADVANCED_FACE ( 'NONE', ( #275 ), #79, .T. ) ;
#341 = VERTEX_POINT ( 'NONE', #333 ) ;
#342 = CARTESIAN_POINT ( 'NONE',  ( 0.0000000000000000000, 0.4000000000000000222, 0.0000000000000000000 ) ) ;
#343 = DIRECTION ( 'NONE',  ( 1.000000000000000000, 0.0000000000000000000, 0.0000000000000000000 ) ) ;
#344 = PERSON_AND_ORGANIZATION_ROLE ( 'design_supplier' ) ;
#345 = DIRECTION ( 'NONE',  ( -1.000000000000000000, 0.0000000000000000000, 0.0000000000000000000 ) ) ;
#346 = CARTESIAN_POINT ( 'NONE',  ( -0.2500000000000000000, 0.0000000000000000000, 0.2000000000000000111 ) ) ;
#347 = APPROVAL_PERSON_ORGANIZATION ( #119, #104, #36 ) ;
#348 = LINE ( 'NONE', #92, #99 ) ;
#349 = APPROVAL_DATE_TIME ( #321, #24 ) ;
#350 = VECTOR ( 'NONE', #290, 1000.000000000000000 ) ;
#351 = FACE_OUTER_BOUND ( 'NONE', #43, .T. ) ;
#352 = DATE_AND_TIME ( #239, #197 ) ;
#353 = CARTESIAN_POINT ( 'NONE',  ( 0.2500000000000000000, 0.0000000000000000000, 0.2000000000000000111 ) ) ;
#354 = EDGE_LOOP ( 'NONE', ( #54, #131, #135, #166 ) ) ;
#355 = VECTOR ( 'NONE', #18, 1000.000000000000000 ) ;
#356 = DESIGN_CONTEXT ( 'detailed design', #200, 'design' ) ;
#357 = EDGE_CURVE ( 'NONE', #172, #244, #225, .T. ) ;
#358 = ORIENTED_EDGE ( 'NONE', *, *, #210, .F. ) ;
#359 = VERTEX_POINT ( 'NONE', #221 ) ;
#360 = EDGE_LOOP ( 'NONE', ( #190, #41, #330, #73 ) ) ;
#361 = PLANE ( 'NONE',  #331 ) ;
#362 = ORIENTED_EDGE ( 'NONE', *, *, #90, .T. ) ;
#363 = VERTEX_POINT ( 'NONE', #117 ) ;
#364 = DIRECTION ( 'NONE',  ( 0.0000000000000000000, 0.0000000000000000000, 1.000000000000000000 ) ) ;
#365 = LINE ( 'NONE', #250, #114 ) ;
#366 = DIRECTION ( 'NONE',  ( -1.000000000000000000, 0.0000000000000000000, 0.0000000000000000000 ) ) ;
#367 = ORIENTED_EDGE ( 'NONE', *, *, #222, .F. ) ;
#368 = DIRECTION ( 'NONE',  ( 0.0000000000000000000, -1.000000000000000000, 0.0000000000000000000 ) ) ;
#369 = CARTESIAN_POINT ( 'NONE',  ( 0.2500000000000000000, -0.5000000000000000000, 0.0000000000000000000 ) ) ;
ENDSEC;
END-ISO-10303-21;
