ISO-10303-21;
HEADER;
FILE_DESCRIPTION (( 'STEP AP203' ),
    '1' );
FILE_NAME ('TLRZ2B.STEP',
    '2019-11-13T09:27:07',
    ( '' ),
    ( '' ),
    'SwSTEP 2.0',
    'SolidWorks 2019',
    '' );
FILE_SCHEMA (( 'CONFIG_CONTROL_DESIGN' ));
ENDSEC;

DATA;
#1 = DIRECTION ( 'NONE',  ( 1.000000000000000000, 0.0000000000000000000, 0.0000000000000000000 ) ) ;
#2 = PERSON_AND_ORGANIZATION ( #71, #274 ) ;
#3 = CARTESIAN_POINT ( 'NONE',  ( 0.8000000000000000444, -1.449999999999999956, 0.0000000000000000000 ) ) ;
#4 = CC_DESIGN_PERSON_AND_ORGANIZATION_ASSIGNMENT ( #174, #233, ( #46 ) ) ;
#5 = APPROVAL_STATUS ( 'not_yet_approved' ) ;
#6 = DIRECTION ( 'NONE',  ( 0.0000000000000000000, 0.0000000000000000000, -1.000000000000000000 ) ) ;
#7 = CARTESIAN_POINT ( 'NONE',  ( 0.0000000000000000000, 1.300000000000000044, 0.0000000000000000000 ) ) ;
#8 = EDGE_CURVE ( 'NONE', #307, #341, #197, .T. ) ;
#9 = CARTESIAN_POINT ( 'NONE',  ( 0.0000000000000000000, -1.300000000000000044, 0.0000000000000000000 ) ) ;
#10 = DIRECTION ( 'NONE',  ( -1.000000000000000000, 0.0000000000000000000, 0.0000000000000000000 ) ) ;
#11 = DIRECTION ( 'NONE',  ( 0.0000000000000000000, -0.8669063030575345774, 0.4984711242580837087 ) ) ;
#12 = LINE ( 'NONE', #297, #51 ) ;
#13 = EDGE_LOOP ( 'NONE', ( #142, #129, #184, #17 ) ) ;
#14 = EDGE_CURVE ( 'NONE', #145, #238, #23, .T. ) ;
#15 = CARTESIAN_POINT ( 'NONE',  ( 0.8000000000000000444, 1.185000000000000053, 0.2000000000000000111 ) ) ;
#16 = VERTEX_POINT ( 'NONE', #57 ) ;
#17 = ORIENTED_EDGE ( 'NONE', *, *, #207, .F. ) ;
#18 = EDGE_CURVE ( 'NONE', #367, #332, #251, .T. ) ;
#19 = DIRECTION ( 'NONE',  ( 0.0000000000000000000, 0.0000000000000000000, -1.000000000000000000 ) ) ;
#20 = VECTOR ( 'NONE', #124, 1000.000000000000000 ) ;
#21 = PERSON_AND_ORGANIZATION_ROLE ( 'classification_officer' ) ;
#22 = ORIENTED_EDGE ( 'NONE', *, *, #217, .F. ) ;
#23 = LINE ( 'NONE', #141, #273 ) ;
#24 = VERTEX_POINT ( 'NONE', #342 ) ;
#25 = AXIS2_PLACEMENT_3D ( 'NONE', #62, #315, #149 ) ;
#26 = ORIENTED_EDGE ( 'NONE', *, *, #310, .F. ) ;
#27 = LOCAL_TIME ( 18, 27, 7.000000000000000000, #139 ) ;
#28 = DATE_AND_TIME ( #121, #366 ) ;
#29 = LINE ( 'NONE', #32, #189 ) ;
#30 = SHAPE_DEFINITION_REPRESENTATION ( #82, #131 ) ;
#31 = ADVANCED_FACE ( 'NONE', ( #54 ), #255, .T. ) ;
#32 = CARTESIAN_POINT ( 'NONE',  ( 0.8000000000000000444, 1.449999999999999956, 0.0000000000000000000 ) ) ;
#33 = AXIS2_PLACEMENT_3D ( 'NONE', #232, #6, #350 ) ;
#34 = PLANE ( 'NONE',  #25 ) ;
#35 = DIRECTION ( 'NONE',  ( 1.000000000000000000, 0.0000000000000000000, 0.0000000000000000000 ) ) ;
#36 = ADVANCED_FACE ( 'NONE', ( #338 ), #312, .T. ) ;
#37 = MANIFOLD_SOLID_BREP ( '²ÝÎß°Ä1', #194 ) ;
#38 = DIRECTION ( 'NONE',  ( 0.0000000000000000000, 0.4984711242580837087, -0.8669063030575345774 ) ) ;
#39 = FACE_OUTER_BOUND ( 'NONE', #254, .T. ) ;
#40 = VECTOR ( 'NONE', #361, 1000.000000000000000 ) ;
#41 = CARTESIAN_POINT ( 'NONE',  ( 0.0000000000000000000, 0.0000000000000000000, 0.2000000000000000111 ) ) ;
#42 = CARTESIAN_POINT ( 'NONE',  ( 0.8000000000000000444, -1.600000000000000089, 0.5000000000000000000 ) ) ;
#43 = EDGE_CURVE ( 'NONE', #145, #100, #218, .T. ) ;
#44 = ORIENTED_EDGE ( 'NONE', *, *, #188, .T. ) ;
#45 = AXIS2_PLACEMENT_3D ( 'NONE', #154, #290, #317 ) ;
#46 = PRODUCT_DEFINITION_FORMATION_WITH_SPECIFIED_SOURCE ( 'ANY', '', #63, .NOT_KNOWN. ) ;
#47 =( NAMED_UNIT ( * ) SI_UNIT ( $, .STERADIAN. ) SOLID_ANGLE_UNIT ( ) );
#48 = EDGE_CURVE ( 'NONE', #100, #80, #305, .T. ) ;
#49 = DATE_AND_TIME ( #83, #205 ) ;
#50 = CARTESIAN_POINT ( 'NONE',  ( 0.8000000000000000444, 1.600000000000000089, 0.2000000000000000111 ) ) ;
#51 = VECTOR ( 'NONE', #102, 1000.000000000000000 ) ;
#52 = CARTESIAN_POINT ( 'NONE',  ( 0.8000000000000000444, -1.600000000000000089, 0.0000000000000000000 ) ) ;
#53 = ORIENTED_EDGE ( 'NONE', *, *, #177, .T. ) ;
#54 = FACE_OUTER_BOUND ( 'NONE', #309, .T. ) ;
#55 = COORDINATED_UNIVERSAL_TIME_OFFSET ( 9, 0, .AHEAD. ) ;
#56 = APPROVAL_PERSON_ORGANIZATION ( #165, #211, #146 ) ;
#57 = CARTESIAN_POINT ( 'NONE',  ( -0.8000000000000000444, 1.300000000000000044, 0.0000000000000000000 ) ) ;
#58 = APPROVAL_DATE_TIME ( #90, #211 ) ;
#59 = CARTESIAN_POINT ( 'NONE',  ( -0.8000000000000000444, -1.185000000000000053, 0.2000000000000000111 ) ) ;
#60 = DIRECTION ( 'NONE',  ( 0.0000000000000000000, 0.0000000000000000000, -1.000000000000000000 ) ) ;
#61 = AXIS2_PLACEMENT_3D ( 'NONE', #137, #172, #287 ) ;
#62 = CARTESIAN_POINT ( 'NONE',  ( 0.0000000000000000000, 0.0000000000000000000, 0.5000000000000000000 ) ) ;
#63 = PRODUCT ( 'TLRZ2B', 'TLRZ2B', '', ( #256 ) ) ;
#64 = CARTESIAN_POINT ( 'NONE',  ( 0.8000000000000000444, 1.600000000000000089, 0.5000000000000000000 ) ) ;
#65 = EDGE_CURVE ( 'NONE', #109, #363, #77, .T. ) ;
#66 = DIRECTION ( 'NONE',  ( 0.0000000000000000000, -1.000000000000000000, 0.0000000000000000000 ) ) ;
#67 = CARTESIAN_POINT ( 'NONE',  ( -0.8000000000000000444, -1.300000000000000044, 0.0000000000000000000 ) ) ;
#68 = VECTOR ( 'NONE', #38, 1000.000000000000114 ) ;
#69 = ORIENTED_EDGE ( 'NONE', *, *, #18, .T. ) ;
#70 = EDGE_CURVE ( 'NONE', #307, #16, #120, .T. ) ;
#71 = PERSON ( 'UNSPECIFIED', 'UNSPECIFIED', 'UNSPECIFIED', ('UNSPECIFIED'), ('UNSPECIFIED'), ('UNSPECIFIED') ) ;
#72 = LINE ( 'NONE', #295, #40 ) ;
#73 = PERSON_AND_ORGANIZATION ( #71, #274 ) ;
#74 = ORIENTED_EDGE ( 'NONE', *, *, #222, .F. ) ;
#75 = DATE_AND_TIME ( #119, #314 ) ;
#76 = DIRECTION ( 'NONE',  ( 1.000000000000000000, 0.0000000000000000000, 0.0000000000000000000 ) ) ;
#77 = LINE ( 'NONE', #52, #294 ) ;
#78 = VECTOR ( 'NONE', #35, 1000.000000000000000 ) ;
#79 = APPROVAL ( #226, 'UNSPECIFIED' ) ;
#80 = VERTEX_POINT ( 'NONE', #64 ) ;
#81 = DIRECTION ( 'NONE',  ( 0.0000000000000000000, 0.0000000000000000000, 1.000000000000000000 ) ) ;
#82 = PRODUCT_DEFINITION_SHAPE ( 'NONE', 'NONE',  #110 ) ;
#83 = CALENDAR_DATE ( 2019, 13, 11 ) ;
#84 = ORIENTED_EDGE ( 'NONE', *, *, #347, .F. ) ;
#85 = VECTOR ( 'NONE', #81, 1000.000000000000000 ) ;
#86 = ADVANCED_FACE ( 'NONE', ( #206 ), #153, .T. ) ;
#87 = DATE_TIME_ROLE ( 'creation_date' ) ;
#88 = AXIS2_PLACEMENT_3D ( 'NONE', #106, #185, #125 ) ;
#89 = LINE ( 'NONE', #321, #266 ) ;
#90 = DATE_AND_TIME ( #313, #286 ) ;
#91 = LINE ( 'NONE', #59, #130 ) ;
#92 = LINE ( 'NONE', #203, #349 ) ;
#93 = APPLICATION_CONTEXT ( 'configuration controlled 3d designs of mechanical parts and assemblies' ) ;
#94 = AXIS2_PLACEMENT_3D ( 'NONE', #201, #265, #60 ) ;
#95 = VECTOR ( 'NONE', #291, 1000.000000000000000 ) ;
#96 = AXIS2_PLACEMENT_3D ( 'NONE', #183, #333, #237 ) ;
#97 = CARTESIAN_POINT ( 'NONE',  ( 0.8000000000000000444, 1.300000000000000044, 0.0000000000000000000 ) ) ;
#98 = LINE ( 'NONE', #346, #241 ) ;
#99 = CARTESIAN_POINT ( 'NONE',  ( 0.8000000000000000444, -1.185000000000000053, 0.2000000000000000111 ) ) ;
#100 = VERTEX_POINT ( 'NONE', #351 ) ;
#101 = CC_DESIGN_DATE_AND_TIME_ASSIGNMENT ( #49, #87, ( #110 ) ) ;
#102 = DIRECTION ( 'NONE',  ( 0.0000000000000000000, -1.000000000000000000, 0.0000000000000000000 ) ) ;
#103 = VECTOR ( 'NONE', #182, 1000.000000000000000 ) ;
#104 = LINE ( 'NONE', #334, #103 ) ;
#105 = CC_DESIGN_PERSON_AND_ORGANIZATION_ASSIGNMENT ( #116, #368, ( #63 ) ) ;
#106 = CARTESIAN_POINT ( 'NONE',  ( -0.8000000000000000444, -1.449999999999999956, 0.0000000000000000000 ) ) ;
#107 = EDGE_LOOP ( 'NONE', ( #196, #277, #115, #358 ) ) ;
#108 = DIRECTION ( 'NONE',  ( 0.0000000000000000000, -1.000000000000000000, 0.0000000000000000000 ) ) ;
#109 = VERTEX_POINT ( 'NONE', #288 ) ;
#110 = PRODUCT_DEFINITION ( 'UNKNOWN', '', #46, #327 ) ;
#111 = EDGE_LOOP ( 'NONE', ( #74, #138, #249, #22 ) ) ;
#112 = APPROVAL_PERSON_ORGANIZATION ( #148, #79, #162 ) ;
#113 = ORIENTED_EDGE ( 'NONE', *, *, #14, .T. ) ;
#114 = EDGE_CURVE ( 'NONE', #307, #140, #89, .T. ) ;
#115 = ORIENTED_EDGE ( 'NONE', *, *, #18, .F. ) ;
#116 = PERSON_AND_ORGANIZATION ( #71, #274 ) ;
#117 = DIRECTION ( 'NONE',  ( 1.000000000000000000, 0.0000000000000000000, 0.0000000000000000000 ) ) ;
#118 = VECTOR ( 'NONE', #202, 1000.000000000000114 ) ;
#119 = CALENDAR_DATE ( 2019, 13, 11 ) ;
#120 = LINE ( 'NONE', #258, #118 ) ;
#121 = CALENDAR_DATE ( 2019, 13, 11 ) ;
#122 = DIRECTION ( 'NONE',  ( 0.0000000000000000000, 0.0000000000000000000, 1.000000000000000000 ) ) ;
#123 = DIRECTION ( 'NONE',  ( -1.000000000000000000, 0.0000000000000000000, 0.0000000000000000000 ) ) ;
#124 = DIRECTION ( 'NONE',  ( -1.000000000000000000, 0.0000000000000000000, 0.0000000000000000000 ) ) ;
#125 = DIRECTION ( 'NONE',  ( 0.0000000000000000000, 0.0000000000000000000, 1.000000000000000000 ) ) ;
#126 = CC_DESIGN_PERSON_AND_ORGANIZATION_ASSIGNMENT ( #316, #278, ( #46 ) ) ;
#127 = VERTEX_POINT ( 'NONE', #175 ) ;
#128 = LINE ( 'NONE', #300, #171 ) ;
#129 = ORIENTED_EDGE ( 'NONE', *, *, #136, .F. ) ;
#130 = VECTOR ( 'NONE', #1, 1000.000000000000000 ) ;
#131 = ADVANCED_BREP_SHAPE_REPRESENTATION ( 'TLRZ2B', ( #37, #61 ), #243 ) ;
#132 = PLANE ( 'NONE',  #306 ) ;
#133 = ORIENTED_EDGE ( 'NONE', *, *, #188, .F. ) ;
#134 = FACE_OUTER_BOUND ( 'NONE', #111, .T. ) ;
#135 = ORIENTED_EDGE ( 'NONE', *, *, #253, .T. ) ;
#136 = EDGE_CURVE ( 'NONE', #367, #109, #98, .T. ) ;
#137 = CARTESIAN_POINT ( 'NONE',  ( 0.0000000000000000000, 0.0000000000000000000, 0.0000000000000000000 ) ) ;
#138 = ORIENTED_EDGE ( 'NONE', *, *, #8, .F. ) ;
#139 = COORDINATED_UNIVERSAL_TIME_OFFSET ( 9, 0, .AHEAD. ) ;
#140 = VERTEX_POINT ( 'NONE', #147 ) ;
#141 = CARTESIAN_POINT ( 'NONE',  ( -0.8000000000000000444, 1.600000000000000089, 0.2000000000000000111 ) ) ;
#142 = ORIENTED_EDGE ( 'NONE', *, *, #192, .F. ) ;
#143 = ORIENTED_EDGE ( 'NONE', *, *, #48, .T. ) ;
#144 = CC_DESIGN_PERSON_AND_ORGANIZATION_ASSIGNMENT ( #73, #21, ( #190 ) ) ;
#145 = VERTEX_POINT ( 'NONE', #180 ) ;
#146 = APPROVAL_ROLE ( '' ) ;
#147 = CARTESIAN_POINT ( 'NONE',  ( -0.8000000000000000444, -1.185000000000000053, 0.2000000000000000111 ) ) ;
#148 = PERSON_AND_ORGANIZATION ( #71, #274 ) ;
#149 = DIRECTION ( 'NONE',  ( 1.000000000000000000, 0.0000000000000000000, 0.0000000000000000000 ) ) ;
#150 = PERSON_AND_ORGANIZATION ( #71, #274 ) ;
#151 = DIRECTION ( 'NONE',  ( 0.0000000000000000000, 1.000000000000000000, 0.0000000000000000000 ) ) ;
#152 = EDGE_CURVE ( 'NONE', #140, #329, #91, .T. ) ;
#153 = PLANE ( 'NONE',  #33 ) ;
#154 = CARTESIAN_POINT ( 'NONE',  ( 0.0000000000000000000, 1.449999999999999956, 0.0000000000000000000 ) ) ;
#155 = ADVANCED_FACE ( 'NONE', ( #228 ), #293, .T. ) ;
#156 = CARTESIAN_POINT ( 'NONE',  ( -0.8000000000000000444, 1.185000000000000053, 0.2000000000000000111 ) ) ;
#157 = DIRECTION ( 'NONE',  ( 0.0000000000000000000, -0.4984711242580837087, -0.8669063030575345774 ) ) ;
#158 = ORIENTED_EDGE ( 'NONE', *, *, #65, .F. ) ;
#159 = PLANE ( 'NONE',  #96 ) ;
#160 = APPLICATION_PROTOCOL_DEFINITION ( 'international standard', 'config_control_design', 1994, #330 ) ;
#161 = ORIENTED_EDGE ( 'NONE', *, *, #207, .T. ) ;
#162 = APPROVAL_ROLE ( '' ) ;
#163 = ORIENTED_EDGE ( 'NONE', *, *, #253, .F. ) ;
#164 = ADVANCED_FACE ( 'NONE', ( #208 ), #322, .T. ) ;
#165 = PERSON_AND_ORGANIZATION ( #71, #274 ) ;
#166 = DIRECTION ( 'NONE',  ( 0.0000000000000000000, 0.0000000000000000000, 1.000000000000000000 ) ) ;
#167 = ORIENTED_EDGE ( 'NONE', *, *, #169, .T. ) ;
#168 = EDGE_LOOP ( 'NONE', ( #135, #158, #186, #84, #44, #354, #210, #143 ) ) ;
#169 = EDGE_CURVE ( 'NONE', #16, #145, #92, .T. ) ;
#170 = VERTEX_POINT ( 'NONE', #292 ) ;
#171 = VECTOR ( 'NONE', #245, 1000.000000000000000 ) ;
#172 = DIRECTION ( 'NONE',  ( 0.0000000000000000000, 0.0000000000000000000, 1.000000000000000000 ) ) ;
#173 = CARTESIAN_POINT ( 'NONE',  ( 0.0000000000000000000, -1.600000000000000089, 0.0000000000000000000 ) ) ;
#174 = PERSON_AND_ORGANIZATION ( #71, #274 ) ;
#175 = CARTESIAN_POINT ( 'NONE',  ( 0.8000000000000000444, -1.300000000000000044, 0.0000000000000000000 ) ) ;
#176 = DATE_AND_TIME ( #289, #27 ) ;
#177 = EDGE_CURVE ( 'NONE', #100, #24, #29, .T. ) ;
#178 = LINE ( 'NONE', #260, #95 ) ;
#179 = LINE ( 'NONE', #3, #230 ) ;
#180 = CARTESIAN_POINT ( 'NONE',  ( -0.8000000000000000444, 1.600000000000000089, 0.0000000000000000000 ) ) ;
#181 = ADVANCED_FACE ( 'NONE', ( #320 ), #34, .T. ) ;
#182 = DIRECTION ( 'NONE',  ( 0.0000000000000000000, -1.000000000000000000, 0.0000000000000000000 ) ) ;
#183 = CARTESIAN_POINT ( 'NONE',  ( -0.8000000000000000444, 1.300000000000000044, 0.0000000000000000000 ) ) ;
#184 = ORIENTED_EDGE ( 'NONE', *, *, #296, .F. ) ;
#185 = DIRECTION ( 'NONE',  ( -1.000000000000000000, 0.0000000000000000000, 0.0000000000000000000 ) ) ;
#186 = ORIENTED_EDGE ( 'NONE', *, *, #192, .T. ) ;
#187 = LINE ( 'NONE', #324, #356 ) ;
#188 = EDGE_CURVE ( 'NONE', #329, #341, #178, .T. ) ;
#189 = VECTOR ( 'NONE', #66, 1000.000000000000000 ) ;
#190 = SECURITY_CLASSIFICATION ( '', '', #231 ) ;
#191 = COORDINATED_UNIVERSAL_TIME_OFFSET ( 9, 0, .AHEAD. ) ;
#192 = EDGE_CURVE ( 'NONE', #109, #127, #179, .T. ) ;
#193 = CARTESIAN_POINT ( 'NONE',  ( -0.8000000000000000444, 1.185000000000000053, 0.2000000000000000111 ) ) ;
#194 = CLOSED_SHELL ( 'NONE', ( #36, #323, #86, #164, #269, #181, #31, #155, #337, #319 ) ) ;
#195 = ORIENTED_EDGE ( 'NONE', *, *, #152, .F. ) ;
#196 = ORIENTED_EDGE ( 'NONE', *, *, #65, .T. ) ;
#197 = LINE ( 'NONE', #193, #301 ) ;
#198 = EDGE_CURVE ( 'NONE', #238, #80, #263, .T. ) ;
#199 = DIRECTION ( 'NONE',  ( 0.0000000000000000000, 1.000000000000000000, 0.0000000000000000000 ) ) ;
#200 = APPROVAL_STATUS ( 'not_yet_approved' ) ;
#201 = CARTESIAN_POINT ( 'NONE',  ( 0.8000000000000000444, -1.449999999999999956, 0.0000000000000000000 ) ) ;
#202 = DIRECTION ( 'NONE',  ( 0.0000000000000000000, 0.4984711242580837087, -0.8669063030575345774 ) ) ;
#203 = CARTESIAN_POINT ( 'NONE',  ( -0.8000000000000000444, 1.449999999999999956, 0.0000000000000000000 ) ) ;
#204 = VECTOR ( 'NONE', #166, 1000.000000000000000 ) ;
#205 = LOCAL_TIME ( 18, 27, 7.000000000000000000, #343 ) ;
#206 = FACE_OUTER_BOUND ( 'NONE', #13, .T. ) ;
#207 = EDGE_CURVE ( 'NONE', #127, #170, #264, .T. ) ;
#208 = FACE_OUTER_BOUND ( 'NONE', #168, .T. ) ;
#209 = CARTESIAN_POINT ( 'NONE',  ( -0.8000000000000000444, -1.300000000000000044, 0.0000000000000000000 ) ) ;
#210 = ORIENTED_EDGE ( 'NONE', *, *, #177, .F. ) ;
#211 = APPROVAL ( #200, 'UNSPECIFIED' ) ;
#212 = UNCERTAINTY_MEASURE_WITH_UNIT (LENGTH_MEASURE( 1.000000000000000082E-05 ), #298, 'distance_accuracy_value', 'NONE');
#213 = EDGE_LOOP ( 'NONE', ( #69, #215, #284, #244, #369, #283, #281, #299 ) ) ;
#214 = CARTESIAN_POINT ( 'NONE',  ( -0.8000000000000000444, -1.600000000000000089, 0.5000000000000000000 ) ) ;
#215 = ORIENTED_EDGE ( 'NONE', *, *, #247, .T. ) ;
#216 = CC_DESIGN_APPROVAL ( #79, ( #110 ) ) ;
#217 = EDGE_CURVE ( 'NONE', #24, #16, #236, .T. ) ;
#218 = LINE ( 'NONE', #336, #365 ) ;
#219 = DIRECTION ( 'NONE',  ( 0.0000000000000000000, 0.0000000000000000000, 1.000000000000000000 ) ) ;
#220 = CARTESIAN_POINT ( 'NONE',  ( 0.0000000000000000000, 1.600000000000000089, 0.2000000000000000111 ) ) ;
#221 = VECTOR ( 'NONE', #271, 1000.000000000000114 ) ;
#222 = EDGE_CURVE ( 'NONE', #341, #24, #235, .T. ) ;
#223 = ORIENTED_EDGE ( 'NONE', *, *, #340, .F. ) ;
#224 = APPROVAL_DATE_TIME ( #75, #242 ) ;
#225 = DIRECTION ( 'NONE',  ( 0.0000000000000000000, 0.0000000000000000000, 1.000000000000000000 ) ) ;
#226 = APPROVAL_STATUS ( 'not_yet_approved' ) ;
#227 = AXIS2_PLACEMENT_3D ( 'NONE', #220, #199, #219 ) ;
#228 = FACE_OUTER_BOUND ( 'NONE', #360, .T. ) ;
#229 = VECTOR ( 'NONE', #123, 1000.000000000000000 ) ;
#230 = VECTOR ( 'NONE', #151, 1000.000000000000000 ) ;
#231 = SECURITY_CLASSIFICATION_LEVEL ( 'unclassified' ) ;
#232 = CARTESIAN_POINT ( 'NONE',  ( 0.0000000000000000000, -1.449999999999999956, 0.0000000000000000000 ) ) ;
#233 = PERSON_AND_ORGANIZATION_ROLE ( 'design_supplier' ) ;
#234 = DIRECTION ( 'NONE',  ( 0.0000000000000000000, 1.000000000000000000, 0.0000000000000000000 ) ) ;
#235 = LINE ( 'NONE', #97, #68 ) ;
#236 = LINE ( 'NONE', #7, #229 ) ;
#237 = DIRECTION ( 'NONE',  ( 0.0000000000000000000, 0.4984711242580837087, -0.8669063030575345774 ) ) ;
#238 = VERTEX_POINT ( 'NONE', #357 ) ;
#239 = CARTESIAN_POINT ( 'NONE',  ( -0.8000000000000000444, -1.600000000000000089, 0.0000000000000000000 ) ) ;
#240 = ORIENTED_EDGE ( 'NONE', *, *, #198, .F. ) ;
#241 = VECTOR ( 'NONE', #117, 1000.000000000000000 ) ;
#242 = APPROVAL ( #5, 'UNSPECIFIED' ) ;
#243 =( GEOMETRIC_REPRESENTATION_CONTEXT ( 3 ) GLOBAL_UNCERTAINTY_ASSIGNED_CONTEXT ( ( #212 ) ) GLOBAL_UNIT_ASSIGNED_CONTEXT ( ( #298, #328, #47 ) ) REPRESENTATION_CONTEXT ( 'NONE', 'WORKASPACE' ) );
#244 = ORIENTED_EDGE ( 'NONE', *, *, #169, .F. ) ;
#245 = DIRECTION ( 'NONE',  ( -1.000000000000000000, 0.0000000000000000000, 0.0000000000000000000 ) ) ;
#246 = ORIENTED_EDGE ( 'NONE', *, *, #217, .T. ) ;
#247 = EDGE_CURVE ( 'NONE', #332, #238, #72, .T. ) ;
#248 = DIRECTION ( 'NONE',  ( 0.0000000000000000000, 0.0000000000000000000, -1.000000000000000000 ) ) ;
#249 = ORIENTED_EDGE ( 'NONE', *, *, #70, .T. ) ;
#250 = ORIENTED_EDGE ( 'NONE', *, *, #247, .F. ) ;
#251 = LINE ( 'NONE', #252, #85 ) ;
#252 = CARTESIAN_POINT ( 'NONE',  ( -0.8000000000000000444, -1.600000000000000089, 0.0000000000000000000 ) ) ;
#253 = EDGE_CURVE ( 'NONE', #80, #363, #12, .T. ) ;
#254 = EDGE_LOOP ( 'NONE', ( #133, #195, #325, #285 ) ) ;
#255 = PLANE ( 'NONE',  #227 ) ;
#256 = MECHANICAL_CONTEXT ( 'NONE', #330, 'mechanical' ) ;
#257 = PRODUCT_RELATED_PRODUCT_CATEGORY ( 'detail', '', ( #63 ) ) ;
#258 = CARTESIAN_POINT ( 'NONE',  ( -0.8000000000000000444, 1.300000000000000044, 0.0000000000000000000 ) ) ;
#259 = PERSON_AND_ORGANIZATION_ROLE ( 'creator' ) ;
#260 = CARTESIAN_POINT ( 'NONE',  ( 0.8000000000000000444, 0.0000000000000000000, 0.2000000000000000111 ) ) ;
#261 = AXIS2_PLACEMENT_3D ( 'NONE', #41, #248, #10 ) ;
#262 = APPROVAL_DATE_TIME ( #28, #79 ) ;
#263 = LINE ( 'NONE', #348, #78 ) ;
#264 = LINE ( 'NONE', #9, #20 ) ;
#265 = DIRECTION ( 'NONE',  ( 1.000000000000000000, 0.0000000000000000000, 0.0000000000000000000 ) ) ;
#266 = VECTOR ( 'NONE', #344, 1000.000000000000000 ) ;
#267 = PLANE ( 'NONE',  #88 ) ;
#268 = DIRECTION ( 'NONE',  ( 0.0000000000000000000, -0.4984711242580837087, -0.8669063030575345774 ) ) ;
#269 = ADVANCED_FACE ( 'NONE', ( #39 ), #359, .T. ) ;
#270 = ORIENTED_EDGE ( 'NONE', *, *, #43, .T. ) ;
#271 = DIRECTION ( 'NONE',  ( 0.0000000000000000000, -0.4984711242580837087, -0.8669063030575345774 ) ) ;
#272 = ORIENTED_EDGE ( 'NONE', *, *, #347, .T. ) ;
#273 = VECTOR ( 'NONE', #225, 1000.000000000000000 ) ;
#274 = ORGANIZATION ( 'UNSPECIFIED', 'UNSPECIFIED', '' ) ;
#275 = CC_DESIGN_PERSON_AND_ORGANIZATION_ASSIGNMENT ( #150, #259, ( #110 ) ) ;
#276 = FACE_OUTER_BOUND ( 'NONE', #355, .T. ) ;
#277 = ORIENTED_EDGE ( 'NONE', *, *, #310, .T. ) ;
#278 = PERSON_AND_ORGANIZATION_ROLE ( 'creator' ) ;
#279 = ORIENTED_EDGE ( 'NONE', *, *, #198, .T. ) ;
#280 = COORDINATED_UNIVERSAL_TIME_OFFSET ( 9, 0, .AHEAD. ) ;
#281 = ORIENTED_EDGE ( 'NONE', *, *, #340, .T. ) ;
#282 = CC_DESIGN_APPROVAL ( #242, ( #190 ) ) ;
#283 = ORIENTED_EDGE ( 'NONE', *, *, #114, .T. ) ;
#284 = ORIENTED_EDGE ( 'NONE', *, *, #14, .F. ) ;
#285 = ORIENTED_EDGE ( 'NONE', *, *, #8, .T. ) ;
#286 = LOCAL_TIME ( 18, 27, 7.000000000000000000, #280 ) ;
#287 = DIRECTION ( 'NONE',  ( 1.000000000000000000, 0.0000000000000000000, 0.0000000000000000000 ) ) ;
#288 = CARTESIAN_POINT ( 'NONE',  ( 0.8000000000000000444, -1.600000000000000089, 0.0000000000000000000 ) ) ;
#289 = CALENDAR_DATE ( 2019, 13, 11 ) ;
#290 = DIRECTION ( 'NONE',  ( 0.0000000000000000000, 0.0000000000000000000, -1.000000000000000000 ) ) ;
#291 = DIRECTION ( 'NONE',  ( 0.0000000000000000000, 1.000000000000000000, 0.0000000000000000000 ) ) ;
#292 = CARTESIAN_POINT ( 'NONE',  ( -0.8000000000000000444, -1.300000000000000044, 0.0000000000000000000 ) ) ;
#293 = PLANE ( 'NONE',  #45 ) ;
#294 = VECTOR ( 'NONE', #122, 1000.000000000000000 ) ;
#295 = CARTESIAN_POINT ( 'NONE',  ( -0.8000000000000000444, 0.0000000000000000000, 0.5000000000000000000 ) ) ;
#296 = EDGE_CURVE ( 'NONE', #170, #367, #104, .T. ) ;
#297 = CARTESIAN_POINT ( 'NONE',  ( 0.8000000000000000444, 0.0000000000000000000, 0.5000000000000000000 ) ) ;
#298 =( LENGTH_UNIT ( ) NAMED_UNIT ( * ) SI_UNIT ( .MILLI., .METRE. ) );
#299 = ORIENTED_EDGE ( 'NONE', *, *, #296, .T. ) ;
#300 = CARTESIAN_POINT ( 'NONE',  ( 0.0000000000000000000, -1.600000000000000089, 0.5000000000000000000 ) ) ;
#301 = VECTOR ( 'NONE', #362, 1000.000000000000000 ) ;
#302 = ORIENTED_EDGE ( 'NONE', *, *, #48, .F. ) ;
#303 = DATE_TIME_ROLE ( 'classification_date' ) ;
#304 = APPLICATION_PROTOCOL_DEFINITION ( 'international standard', 'config_control_design', 1994, #93 ) ;
#305 = LINE ( 'NONE', #50, #204 ) ;
#306 = AXIS2_PLACEMENT_3D ( 'NONE', #67, #11, #157 ) ;
#307 = VERTEX_POINT ( 'NONE', #156 ) ;
#308 = ORIENTED_EDGE ( 'NONE', *, *, #152, .T. ) ;
#309 = EDGE_LOOP ( 'NONE', ( #113, #279, #302, #364 ) ) ;
#310 = EDGE_CURVE ( 'NONE', #363, #332, #128, .T. ) ;
#311 = CC_DESIGN_APPROVAL ( #211, ( #46 ) ) ;
#312 = PLANE ( 'NONE',  #318 ) ;
#313 = CALENDAR_DATE ( 2019, 13, 11 ) ;
#314 = LOCAL_TIME ( 18, 27, 7.000000000000000000, #55 ) ;
#315 = DIRECTION ( 'NONE',  ( 0.0000000000000000000, 0.0000000000000000000, 1.000000000000000000 ) ) ;
#316 = PERSON_AND_ORGANIZATION ( #71, #274 ) ;
#317 = DIRECTION ( 'NONE',  ( -1.000000000000000000, 0.0000000000000000000, 0.0000000000000000000 ) ) ;
#318 = AXIS2_PLACEMENT_3D ( 'NONE', #173, #108, #19 ) ;
#319 = ADVANCED_FACE ( 'NONE', ( #276 ), #132, .F. ) ;
#320 = FACE_OUTER_BOUND ( 'NONE', #339, .T. ) ;
#321 = CARTESIAN_POINT ( 'NONE',  ( -0.8000000000000000444, 0.0000000000000000000, 0.2000000000000000111 ) ) ;
#322 = PLANE ( 'NONE',  #94 ) ;
#323 = ADVANCED_FACE ( 'NONE', ( #331 ), #267, .T. ) ;
#324 = CARTESIAN_POINT ( 'NONE',  ( 0.8000000000000000444, -1.300000000000000044, 0.0000000000000000000 ) ) ;
#325 = ORIENTED_EDGE ( 'NONE', *, *, #114, .F. ) ;
#326 = CC_DESIGN_SECURITY_CLASSIFICATION ( #190, ( #46 ) ) ;
#327 = DESIGN_CONTEXT ( 'detailed design', #93, 'design' ) ;
#328 =( NAMED_UNIT ( * ) PLANE_ANGLE_UNIT ( ) SI_UNIT ( $, .RADIAN. ) );
#329 = VERTEX_POINT ( 'NONE', #99 ) ;
#330 = APPLICATION_CONTEXT ( 'configuration controlled 3d designs of mechanical parts and assemblies' ) ;
#331 = FACE_OUTER_BOUND ( 'NONE', #213, .T. ) ;
#332 = VERTEX_POINT ( 'NONE', #214 ) ;
#333 = DIRECTION ( 'NONE',  ( 0.0000000000000000000, 0.8669063030575345774, 0.4984711242580837087 ) ) ;
#334 = CARTESIAN_POINT ( 'NONE',  ( -0.8000000000000000444, -1.449999999999999956, 0.0000000000000000000 ) ) ;
#335 = APPROVAL_PERSON_ORGANIZATION ( #2, #242, #345 ) ;
#336 = CARTESIAN_POINT ( 'NONE',  ( 0.0000000000000000000, 1.600000000000000089, 0.0000000000000000000 ) ) ;
#337 = ADVANCED_FACE ( 'NONE', ( #134 ), #159, .F. ) ;
#338 = FACE_OUTER_BOUND ( 'NONE', #107, .T. ) ;
#339 = EDGE_LOOP ( 'NONE', ( #26, #163, #240, #250 ) ) ;
#340 = EDGE_CURVE ( 'NONE', #140, #170, #353, .T. ) ;
#341 = VERTEX_POINT ( 'NONE', #15 ) ;
#342 = CARTESIAN_POINT ( 'NONE',  ( 0.8000000000000000444, 1.300000000000000044, 0.0000000000000000000 ) ) ;
#343 = COORDINATED_UNIVERSAL_TIME_OFFSET ( 9, 0, .AHEAD. ) ;
#344 = DIRECTION ( 'NONE',  ( 0.0000000000000000000, -1.000000000000000000, 0.0000000000000000000 ) ) ;
#345 = APPROVAL_ROLE ( '' ) ;
#346 = CARTESIAN_POINT ( 'NONE',  ( 0.0000000000000000000, -1.600000000000000089, 0.0000000000000000000 ) ) ;
#347 = EDGE_CURVE ( 'NONE', #329, #127, #187, .T. ) ;
#348 = CARTESIAN_POINT ( 'NONE',  ( 0.0000000000000000000, 1.600000000000000089, 0.5000000000000000000 ) ) ;
#349 = VECTOR ( 'NONE', #234, 1000.000000000000000 ) ;
#350 = DIRECTION ( 'NONE',  ( -1.000000000000000000, 0.0000000000000000000, 0.0000000000000000000 ) ) ;
#351 = CARTESIAN_POINT ( 'NONE',  ( 0.8000000000000000444, 1.600000000000000089, 0.0000000000000000000 ) ) ;
#352 = CC_DESIGN_DATE_AND_TIME_ASSIGNMENT ( #176, #303, ( #190 ) ) ;
#353 = LINE ( 'NONE', #209, #221 ) ;
#354 = ORIENTED_EDGE ( 'NONE', *, *, #222, .T. ) ;
#355 = EDGE_LOOP ( 'NONE', ( #272, #161, #223, #308 ) ) ;
#356 = VECTOR ( 'NONE', #268, 1000.000000000000114 ) ;
#357 = CARTESIAN_POINT ( 'NONE',  ( -0.8000000000000000444, 1.600000000000000089, 0.5000000000000000000 ) ) ;
#358 = ORIENTED_EDGE ( 'NONE', *, *, #136, .T. ) ;
#359 = PLANE ( 'NONE',  #261 ) ;
#360 = EDGE_LOOP ( 'NONE', ( #53, #246, #167, #270 ) ) ;
#361 = DIRECTION ( 'NONE',  ( 0.0000000000000000000, 1.000000000000000000, 0.0000000000000000000 ) ) ;
#362 = DIRECTION ( 'NONE',  ( 1.000000000000000000, 0.0000000000000000000, 0.0000000000000000000 ) ) ;
#363 = VERTEX_POINT ( 'NONE', #42 ) ;
#364 = ORIENTED_EDGE ( 'NONE', *, *, #43, .F. ) ;
#365 = VECTOR ( 'NONE', #76, 1000.000000000000000 ) ;
#366 = LOCAL_TIME ( 18, 27, 7.000000000000000000, #191 ) ;
#367 = VERTEX_POINT ( 'NONE', #239 ) ;
#368 = PERSON_AND_ORGANIZATION_ROLE ( 'design_owner' ) ;
#369 = ORIENTED_EDGE ( 'NONE', *, *, #70, .F. ) ;
ENDSEC;
END-ISO-10303-21;
