ISO-10303-21;
HEADER;
FILE_DESCRIPTION (( 'STEP AP203' ),
    '1' );
FILE_NAME ('TLR3AP0.5mƒ¶.STEP',
    '2019-11-13T09:15:21',
    ( '' ),
    ( '' ),
    'SwSTEP 2.0',
    'SolidWorks 2019',
    '' );
FILE_SCHEMA (( 'CONFIG_CONTROL_DESIGN' ));
ENDSEC;

DATA;
#1 = ORIENTED_EDGE ( 'NONE', *, *, #109, .F. ) ;
#2 = CC_DESIGN_APPROVAL ( #310, ( #10 ) ) ;
#3 = ORIENTED_EDGE ( 'NONE', *, *, #308, .T. ) ;
#4 = EDGE_CURVE ( 'NONE', #203, #237, #344, .T. ) ;
#5 = ORIENTED_EDGE ( 'NONE', *, *, #78, .T. ) ;
#6 = ORIENTED_EDGE ( 'NONE', *, *, #92, .F. ) ;
#7 = DIRECTION ( 'NONE',  ( -1.000000000000000000, 0.0000000000000000000, 0.0000000000000000000 ) ) ;
#8 = EDGE_LOOP ( 'NONE', ( #175, #316, #208, #154 ) ) ;
#9 = FACE_OUTER_BOUND ( 'NONE', #206, .T. ) ;
#10 = PRODUCT_DEFINITION ( 'UNKNOWN', '', #137, #47 ) ;
#11 = DIRECTION ( 'NONE',  ( -1.000000000000000000, 0.0000000000000000000, 0.0000000000000000000 ) ) ;
#12 = PRODUCT ( 'TLR3AP0.5mƒ¶', 'TLR3AP0.5mƒ¶', '', ( #106 ) ) ;
#13 = VECTOR ( 'NONE', #125, 1000.000000000000000 ) ;
#14 = CARTESIAN_POINT ( 'NONE',  ( -1.590000000000000080, -3.174999999999999822, 0.6650000000000000355 ) ) ;
#15 = CARTESIAN_POINT ( 'NONE',  ( 0.0000000000000000000, 3.174999999999999822, 0.0000000000000000000 ) ) ;
#16 = APPLICATION_PROTOCOL_DEFINITION ( 'international standard', 'config_control_design', 1994, #282 ) ;
#17 = CARTESIAN_POINT ( 'NONE',  ( 1.590000000000000080, -1.812500000000000000, -0.007500000000000000590 ) ) ;
#18 = COORDINATED_UNIVERSAL_TIME_OFFSET ( 9, 0, .AHEAD. ) ;
#19 = DIRECTION ( 'NONE',  ( 1.000000000000000000, 0.0000000000000000000, 0.0000000000000000000 ) ) ;
#20 = VECTOR ( 'NONE', #244, 1000.000000000000000 ) ;
#21 = APPROVAL_ROLE ( '' ) ;
#22 = CARTESIAN_POINT ( 'NONE',  ( 1.590000000000000080, -3.174999999999999822, 0.6650000000000000355 ) ) ;
#23 = CARTESIAN_POINT ( 'NONE',  ( 0.0000000000000000000, -3.174999999999999822, 0.0000000000000000000 ) ) ;
#24 =( NAMED_UNIT ( * ) SI_UNIT ( $, .STERADIAN. ) SOLID_ANGLE_UNIT ( ) );
#25 = ORGANIZATION ( 'UNSPECIFIED', 'UNSPECIFIED', '' ) ;
#26 = AXIS2_PLACEMENT_3D ( 'NONE', #23, #280, #225 ) ;
#27 = CARTESIAN_POINT ( 'NONE',  ( -1.590000000000000080, 0.4500000000000000111, -0.007500000000000000590 ) ) ;
#28 = EDGE_CURVE ( 'NONE', #268, #99, #318, .T. ) ;
#29 = PLANE ( 'NONE',  #187 ) ;
#30 = FACE_OUTER_BOUND ( 'NONE', #265, .T. ) ;
#31 = ORIENTED_EDGE ( 'NONE', *, *, #279, .T. ) ;
#32 = CARTESIAN_POINT ( 'NONE',  ( 1.590000000000000080, -0.4500000000000000111, -0.007500000000000000590 ) ) ;
#33 = LINE ( 'NONE', #119, #288 ) ;
#34 = CC_DESIGN_PERSON_AND_ORGANIZATION_ASSIGNMENT ( #186, #300, ( #12 ) ) ;
#35 = VERTEX_POINT ( 'NONE', #296 ) ;
#36 = ORIENTED_EDGE ( 'NONE', *, *, #221, .T. ) ;
#37 = VECTOR ( 'NONE', #145, 1000.000000000000000 ) ;
#38 = ORIENTED_EDGE ( 'NONE', *, *, #356, .F. ) ;
#39 = PRODUCT_DEFINITION_SHAPE ( 'NONE', 'NONE',  #10 ) ;
#40 = ADVANCED_FACE ( 'NONE', ( #153 ), #124, .T. ) ;
#41 = DIRECTION ( 'NONE',  ( 0.0000000000000000000, 0.0000000000000000000, 1.000000000000000000 ) ) ;
#42 = CARTESIAN_POINT ( 'NONE',  ( -1.590000000000000080, 3.174999999999999822, -0.007500000000000000590 ) ) ;
#43 = ORIENTED_EDGE ( 'NONE', *, *, #190, .F. ) ;
#44 = VECTOR ( 'NONE', #61, 1000.000000000000000 ) ;
#45 = PLANE ( 'NONE',  #157 ) ;
#46 = PERSON_AND_ORGANIZATION ( #219, #25 ) ;
#47 = DESIGN_CONTEXT ( 'detailed design', #138, 'design' ) ;
#48 = APPROVAL_STATUS ( 'not_yet_approved' ) ;
#49 = SECURITY_CLASSIFICATION_LEVEL ( 'unclassified' ) ;
#50 = VECTOR ( 'NONE', #210, 1000.000000000000000 ) ;
#51 = APPROVAL_DATE_TIME ( #107, #96 ) ;
#52 = CARTESIAN_POINT ( 'NONE',  ( 0.0000000000000000000, -0.4500000000000000111, 0.1000000000000000056 ) ) ;
#53 = PLANE ( 'NONE',  #139 ) ;
#54 = PLANE ( 'NONE',  #112 ) ;
#55 = EDGE_CURVE ( 'NONE', #367, #245, #322, .T. ) ;
#56 = CARTESIAN_POINT ( 'NONE',  ( 0.0000000000000000000, 1.665334536937735057E-16, 0.1000000000000000056 ) ) ;
#57 = CARTESIAN_POINT ( 'NONE',  ( -1.590000000000000080, -0.4500000000000000111, 0.0000000000000000000 ) ) ;
#58 = PLANE ( 'NONE',  #147 ) ;
#59 = ORIENTED_EDGE ( 'NONE', *, *, #336, .F. ) ;
#60 = CARTESIAN_POINT ( 'NONE',  ( -1.590000000000000080, -0.4500000000000000111, 0.1000000000000000056 ) ) ;
#61 = DIRECTION ( 'NONE',  ( 0.0000000000000000000, 0.0000000000000000000, 1.000000000000000000 ) ) ;
#62 = ORIENTED_EDGE ( 'NONE', *, *, #257, .T. ) ;
#63 = CC_DESIGN_PERSON_AND_ORGANIZATION_ASSIGNMENT ( #305, #220, ( #233 ) ) ;
#64 = ADVANCED_BREP_SHAPE_REPRESENTATION ( 'TLR3AP0.5mƒ¶', ( #142, #67 ), #272 ) ;
#65 = ORIENTED_EDGE ( 'NONE', *, *, #336, .T. ) ;
#66 = ORIENTED_EDGE ( 'NONE', *, *, #228, .T. ) ;
#67 = AXIS2_PLACEMENT_3D ( 'NONE', #79, #358, #19 ) ;
#68 = DIRECTION ( 'NONE',  ( 0.0000000000000000000, 0.0000000000000000000, -1.000000000000000000 ) ) ;
#69 = ORIENTED_EDGE ( 'NONE', *, *, #103, .T. ) ;
#70 = VECTOR ( 'NONE', #100, 1000.000000000000000 ) ;
#71 = ORIENTED_EDGE ( 'NONE', *, *, #78, .F. ) ;
#72 = LINE ( 'NONE', #77, #13 ) ;
#73 = VERTEX_POINT ( 'NONE', #42 ) ;
#74 = LINE ( 'NONE', #155, #20 ) ;
#75 = DATE_AND_TIME ( #222, #212 ) ;
#76 = VECTOR ( 'NONE', #253, 1000.000000000000000 ) ;
#77 = CARTESIAN_POINT ( 'NONE',  ( 0.0000000000000000000, 0.4500000000000000111, -0.007500000000000000590 ) ) ;
#78 = EDGE_CURVE ( 'NONE', #237, #315, #156, .T. ) ;
#79 = CARTESIAN_POINT ( 'NONE',  ( 0.0000000000000000000, 0.0000000000000000000, 0.0000000000000000000 ) ) ;
#80 = PERSON_AND_ORGANIZATION ( #219, #25 ) ;
#81 = DATE_AND_TIME ( #303, #144 ) ;
#82 = ADVANCED_FACE ( 'NONE', ( #126 ), #184, .T. ) ;
#83 = DIRECTION ( 'NONE',  ( 0.0000000000000000000, 0.0000000000000000000, 1.000000000000000000 ) ) ;
#84 = LINE ( 'NONE', #368, #320 ) ;
#85 = CARTESIAN_POINT ( 'NONE',  ( 1.590000000000000080, -3.174999999999999822, 0.0000000000000000000 ) ) ;
#86 = ORIENTED_EDGE ( 'NONE', *, *, #228, .F. ) ;
#87 = LOCAL_TIME ( 18, 15, 21.00000000000000000, #354 ) ;
#88 = DIRECTION ( 'NONE',  ( -1.000000000000000000, 0.0000000000000000000, 0.0000000000000000000 ) ) ;
#89 = VECTOR ( 'NONE', #115, 1000.000000000000000 ) ;
#90 = ORIENTED_EDGE ( 'NONE', *, *, #351, .F. ) ;
#91 = ORIENTED_EDGE ( 'NONE', *, *, #190, .T. ) ;
#92 = EDGE_CURVE ( 'NONE', #367, #315, #129, .T. ) ;
#93 = CARTESIAN_POINT ( 'NONE',  ( 1.590000000000000080, 0.0000000000000000000, 0.6650000000000000355 ) ) ;
#94 = DIRECTION ( 'NONE',  ( 0.0000000000000000000, 1.000000000000000000, 0.0000000000000000000 ) ) ;
#95 = ORIENTED_EDGE ( 'NONE', *, *, #198, .F. ) ;
#96 = APPROVAL ( #164, 'UNSPECIFIED' ) ;
#97 = ORIENTED_EDGE ( 'NONE', *, *, #308, .F. ) ;
#98 = DIRECTION ( 'NONE',  ( 0.0000000000000000000, 0.0000000000000000000, 1.000000000000000000 ) ) ;
#99 = VERTEX_POINT ( 'NONE', #258 ) ;
#100 = DIRECTION ( 'NONE',  ( 0.0000000000000000000, 0.0000000000000000000, 1.000000000000000000 ) ) ;
#101 = CARTESIAN_POINT ( 'NONE',  ( -1.590000000000000080, 0.4500000000000000111, 0.0000000000000000000 ) ) ;
#102 = UNCERTAINTY_MEASURE_WITH_UNIT (LENGTH_MEASURE( 1.000000000000000082E-05 ), #321, 'distance_accuracy_value', 'NONE');
#103 = EDGE_CURVE ( 'NONE', #342, #203, #260, .T. ) ;
#104 = LINE ( 'NONE', #185, #70 ) ;
#105 = PERSON_AND_ORGANIZATION_ROLE ( 'design_supplier' ) ;
#106 = MECHANICAL_CONTEXT ( 'NONE', #282, 'mechanical' ) ;
#107 = DATE_AND_TIME ( #251, #171 ) ;
#108 = CARTESIAN_POINT ( 'NONE',  ( -1.590000000000000080, 1.665334536937735057E-16, 0.1000000000000000056 ) ) ;
#109 = EDGE_CURVE ( 'NONE', #122, #291, #84, .T. ) ;
#110 = PLANE ( 'NONE',  #26 ) ;
#111 = DIRECTION ( 'NONE',  ( -1.000000000000000000, 0.0000000000000000000, 0.0000000000000000000 ) ) ;
#112 = AXIS2_PLACEMENT_3D ( 'NONE', #56, #83, #363 ) ;
#113 = LINE ( 'NONE', #226, #313 ) ;
#114 = APPROVAL_PERSON_ORGANIZATION ( #161, #262, #162 ) ;
#115 = DIRECTION ( 'NONE',  ( 0.0000000000000000000, 0.0000000000000000000, 1.000000000000000000 ) ) ;
#116 = DIRECTION ( 'NONE',  ( 0.0000000000000000000, 0.0000000000000000000, -1.000000000000000000 ) ) ;
#117 = CC_DESIGN_PERSON_AND_ORGANIZATION_ASSIGNMENT ( #357, #248, ( #10 ) ) ;
#118 = DIRECTION ( 'NONE',  ( 0.0000000000000000000, -1.000000000000000000, 0.0000000000000000000 ) ) ;
#119 = CARTESIAN_POINT ( 'NONE',  ( 0.0000000000000000000, -0.4500000000000000111, -0.007500000000000000590 ) ) ;
#120 = ORIENTED_EDGE ( 'NONE', *, *, #55, .F. ) ;
#121 = ORIENTED_EDGE ( 'NONE', *, *, #140, .T. ) ;
#122 = VERTEX_POINT ( 'NONE', #32 ) ;
#123 = EDGE_LOOP ( 'NONE', ( #339, #95, #211, #181, #38, #90, #31, #65 ) ) ;
#124 = PLANE ( 'NONE',  #275 ) ;
#125 = DIRECTION ( 'NONE',  ( 1.000000000000000000, 0.0000000000000000000, 0.0000000000000000000 ) ) ;
#126 = FACE_OUTER_BOUND ( 'NONE', #345, .T. ) ;
#127 = VECTOR ( 'NONE', #165, 1000.000000000000000 ) ;
#128 = LINE ( 'NONE', #270, #341 ) ;
#129 = LINE ( 'NONE', #172, #37 ) ;
#130 = COORDINATED_UNIVERSAL_TIME_OFFSET ( 9, 0, .AHEAD. ) ;
#131 = CC_DESIGN_PERSON_AND_ORGANIZATION_ASSIGNMENT ( #80, #105, ( #137 ) ) ;
#132 = DIRECTION ( 'NONE',  ( 0.0000000000000000000, 0.0000000000000000000, -1.000000000000000000 ) ) ;
#133 = DATE_AND_TIME ( #327, #192 ) ;
#134 = VECTOR ( 'NONE', #111, 1000.000000000000000 ) ;
#135 = COORDINATED_UNIVERSAL_TIME_OFFSET ( 9, 0, .AHEAD. ) ;
#136 = FACE_OUTER_BOUND ( 'NONE', #243, .T. ) ;
#137 = PRODUCT_DEFINITION_FORMATION_WITH_SPECIFIED_SOURCE ( 'ANY', '', #12, .NOT_KNOWN. ) ;
#138 = APPLICATION_CONTEXT ( 'configuration controlled 3d designs of mechanical parts and assemblies' ) ;
#139 = AXIS2_PLACEMENT_3D ( 'NONE', #224, #330, #256 ) ;
#140 = EDGE_CURVE ( 'NONE', #73, #268, #229, .T. ) ;
#141 = FACE_OUTER_BOUND ( 'NONE', #176, .T. ) ;
#142 = MANIFOLD_SOLID_BREP ( '²ÝÎß°Ä1', #306 ) ;
#143 = CARTESIAN_POINT ( 'NONE',  ( 1.590000000000000080, 0.4500000000000000111, 0.1000000000000000056 ) ) ;
#144 = LOCAL_TIME ( 18, 15, 21.00000000000000000, #246 ) ;
#145 = DIRECTION ( 'NONE',  ( 0.0000000000000000000, 0.0000000000000000000, 1.000000000000000000 ) ) ;
#146 = EDGE_CURVE ( 'NONE', #215, #159, #199, .T. ) ;
#147 = AXIS2_PLACEMENT_3D ( 'NONE', #231, #200, #340 ) ;
#148 = DIRECTION ( 'NONE',  ( 1.000000000000000000, 0.0000000000000000000, 0.0000000000000000000 ) ) ;
#149 = PLANE ( 'NONE',  #365 ) ;
#150 = ORIENTED_EDGE ( 'NONE', *, *, #55, .T. ) ;
#151 = ORIENTED_EDGE ( 'NONE', *, *, #329, .F. ) ;
#152 = ADVANCED_FACE ( 'NONE', ( #284 ), #29, .T. ) ;
#153 = FACE_OUTER_BOUND ( 'NONE', #8, .T. ) ;
#154 = ORIENTED_EDGE ( 'NONE', *, *, #304, .F. ) ;
#155 = CARTESIAN_POINT ( 'NONE',  ( 1.590000000000000080, 3.174999999999999822, 0.0000000000000000000 ) ) ;
#156 = LINE ( 'NONE', #271, #294 ) ;
#157 = AXIS2_PLACEMENT_3D ( 'NONE', #214, #323, #132 ) ;
#158 = CARTESIAN_POINT ( 'NONE',  ( 0.0000000000000000000, -0.4500000000000000111, 0.0000000000000000000 ) ) ;
#159 = VERTEX_POINT ( 'NONE', #60 ) ;
#160 = LINE ( 'NONE', #188, #134 ) ;
#161 = PERSON_AND_ORGANIZATION ( #219, #25 ) ;
#162 = APPROVAL_ROLE ( '' ) ;
#163 = CC_DESIGN_APPROVAL ( #262, ( #137 ) ) ;
#164 = APPROVAL_STATUS ( 'not_yet_approved' ) ;
#165 = DIRECTION ( 'NONE',  ( 0.0000000000000000000, 1.000000000000000000, 0.0000000000000000000 ) ) ;
#166 = SHAPE_DEFINITION_REPRESENTATION ( #39, #64 ) ;
#167 = LINE ( 'NONE', #17, #179 ) ;
#168 = LINE ( 'NONE', #334, #174 ) ;
#169 = DIRECTION ( 'NONE',  ( 0.0000000000000000000, 0.0000000000000000000, 1.000000000000000000 ) ) ;
#170 = ADVANCED_FACE ( 'NONE', ( #285 ), #149, .T. ) ;
#171 = LOCAL_TIME ( 18, 15, 21.00000000000000000, #135 ) ;
#172 = CARTESIAN_POINT ( 'NONE',  ( -1.590000000000000080, -3.174999999999999822, 0.0000000000000000000 ) ) ;
#173 = CARTESIAN_POINT ( 'NONE',  ( -1.590000000000000080, -0.4500000000000000111, -0.007500000000000000590 ) ) ;
#174 = VECTOR ( 'NONE', #195, 1000.000000000000000 ) ;
#175 = ORIENTED_EDGE ( 'NONE', *, *, #279, .F. ) ;
#176 = EDGE_LOOP ( 'NONE', ( #264, #66, #3, #207 ) ) ;
#177 = ORIENTED_EDGE ( 'NONE', *, *, #92, .T. ) ;
#178 = ORIENTED_EDGE ( 'NONE', *, *, #333, .F. ) ;
#179 = VECTOR ( 'NONE', #94, 1000.000000000000000 ) ;
#180 = ORIENTED_EDGE ( 'NONE', *, *, #28, .T. ) ;
#181 = ORIENTED_EDGE ( 'NONE', *, *, #109, .T. ) ;
#182 = ADVANCED_FACE ( 'NONE', ( #30 ), #58, .T. ) ;
#183 = CARTESIAN_POINT ( 'NONE',  ( -1.590000000000000080, -3.174999999999999822, -0.007500000000000000590 ) ) ;
#184 = PLANE ( 'NONE',  #255 ) ;
#185 = CARTESIAN_POINT ( 'NONE',  ( 1.590000000000000080, 0.4500000000000000111, 0.0000000000000000000 ) ) ;
#186 = PERSON_AND_ORGANIZATION ( #219, #25 ) ;
#187 = AXIS2_PLACEMENT_3D ( 'NONE', #337, #201, #309 ) ;
#188 = CARTESIAN_POINT ( 'NONE',  ( 0.0000000000000000000, 3.174999999999999822, -0.007500000000000000590 ) ) ;
#189 = APPROVAL_ROLE ( '' ) ;
#190 = EDGE_CURVE ( 'NONE', #215, #367, #289, .T. ) ;
#191 = PERSON_AND_ORGANIZATION_ROLE ( 'creator' ) ;
#192 = LOCAL_TIME ( 18, 15, 21.00000000000000000, #18 ) ;
#193 = APPROVAL_DATE_TIME ( #81, #262 ) ;
#194 = CC_DESIGN_PERSON_AND_ORGANIZATION_ASSIGNMENT ( #277, #191, ( #137 ) ) ;
#195 = DIRECTION ( 'NONE',  ( 0.0000000000000000000, 1.000000000000000000, 0.0000000000000000000 ) ) ;
#196 = VECTOR ( 'NONE', #326, 1000.000000000000000 ) ;
#197 = CC_DESIGN_APPROVAL ( #96, ( #233 ) ) ;
#198 = EDGE_CURVE ( 'NONE', #245, #237, #369, .T. ) ;
#199 = LINE ( 'NONE', #57, #89 ) ;
#200 = DIRECTION ( 'NONE',  ( -1.000000000000000000, 0.0000000000000000000, 0.0000000000000000000 ) ) ;
#201 = DIRECTION ( 'NONE',  ( 0.0000000000000000000, 0.0000000000000000000, -1.000000000000000000 ) ) ;
#202 = CARTESIAN_POINT ( 'NONE',  ( 1.590000000000000080, 3.174999999999999822, 0.6650000000000000355 ) ) ;
#203 = VERTEX_POINT ( 'NONE', #202 ) ;
#204 = LINE ( 'NONE', #108, #127 ) ;
#205 = VECTOR ( 'NONE', #148, 1000.000000000000000 ) ;
#206 = EDGE_LOOP ( 'NONE', ( #240, #97, #317, #232 ) ) ;
#207 = ORIENTED_EDGE ( 'NONE', *, *, #356, .T. ) ;
#208 = ORIENTED_EDGE ( 'NONE', *, *, #140, .F. ) ;
#209 = PRODUCT_RELATED_PRODUCT_CATEGORY ( 'detail', '', ( #12 ) ) ;
#210 = DIRECTION ( 'NONE',  ( 0.0000000000000000000, -1.000000000000000000, 0.0000000000000000000 ) ) ;
#211 = ORIENTED_EDGE ( 'NONE', *, *, #325, .T. ) ;
#212 = LOCAL_TIME ( 18, 15, 21.00000000000000000, #130 ) ;
#213 = DIRECTION ( 'NONE',  ( 0.0000000000000000000, 0.0000000000000000000, 1.000000000000000000 ) ) ;
#214 = CARTESIAN_POINT ( 'NONE',  ( 0.0000000000000000000, 0.4500000000000000111, 0.0000000000000000000 ) ) ;
#215 = VERTEX_POINT ( 'NONE', #173 ) ;
#216 = PLANE ( 'NONE',  #278 ) ;
#217 = APPROVAL_STATUS ( 'not_yet_approved' ) ;
#218 =( NAMED_UNIT ( * ) PLANE_ANGLE_UNIT ( ) SI_UNIT ( $, .RADIAN. ) );
#219 = PERSON ( 'UNSPECIFIED', 'UNSPECIFIED', 'UNSPECIFIED', ('UNSPECIFIED'), ('UNSPECIFIED'), ('UNSPECIFIED') ) ;
#220 = PERSON_AND_ORGANIZATION_ROLE ( 'classification_officer' ) ;
#221 = EDGE_CURVE ( 'NONE', #122, #215, #33, .T. ) ;
#222 = CALENDAR_DATE ( 2019, 13, 11 ) ;
#223 = DATE_TIME_ROLE ( 'classification_date' ) ;
#224 = CARTESIAN_POINT ( 'NONE',  ( 0.0000000000000000000, 0.0000000000000000000, 0.6650000000000000355 ) ) ;
#225 = DIRECTION ( 'NONE',  ( 0.0000000000000000000, 0.0000000000000000000, -1.000000000000000000 ) ) ;
#226 = CARTESIAN_POINT ( 'NONE',  ( 1.590000000000000080, 1.812500000000000000, -0.007500000000000000590 ) ) ;
#227 = CC_DESIGN_SECURITY_CLASSIFICATION ( #233, ( #137 ) ) ;
#228 = EDGE_CURVE ( 'NONE', #159, #99, #204, .T. ) ;
#229 = LINE ( 'NONE', #230, #259 ) ;
#230 = CARTESIAN_POINT ( 'NONE',  ( -1.590000000000000080, 1.812500000000000000, -0.007500000000000000590 ) ) ;
#231 = CARTESIAN_POINT ( 'NONE',  ( -1.590000000000000080, -1.812500000000000000, 0.0000000000000000000 ) ) ;
#232 = ORIENTED_EDGE ( 'NONE', *, *, #283, .T. ) ;
#233 = SECURITY_CLASSIFICATION ( '', '', #49 ) ;
#234 = VERTEX_POINT ( 'NONE', #359 ) ;
#235 = ADVANCED_FACE ( 'NONE', ( #361 ), #110, .T. ) ;
#236 = VECTOR ( 'NONE', #332, 1000.000000000000000 ) ;
#237 = VERTEX_POINT ( 'NONE', #22 ) ;
#238 = EDGE_LOOP ( 'NONE', ( #353, #120, #43, #263 ) ) ;
#239 = ORIENTED_EDGE ( 'NONE', *, *, #198, .T. ) ;
#240 = ORIENTED_EDGE ( 'NONE', *, *, #351, .T. ) ;
#241 = DIRECTION ( 'NONE',  ( 1.000000000000000000, 0.0000000000000000000, 0.0000000000000000000 ) ) ;
#242 = CARTESIAN_POINT ( 'NONE',  ( 0.0000000000000000000, 0.4500000000000000111, 0.1000000000000000056 ) ) ;
#243 = EDGE_LOOP ( 'NONE', ( #292, #178, #1, #36 ) ) ;
#244 = DIRECTION ( 'NONE',  ( 0.0000000000000000000, 0.0000000000000000000, 1.000000000000000000 ) ) ;
#245 = VERTEX_POINT ( 'NONE', #307 ) ;
#246 = COORDINATED_UNIVERSAL_TIME_OFFSET ( 9, 0, .AHEAD. ) ;
#247 = CARTESIAN_POINT ( 'NONE',  ( 1.590000000000000080, -0.4500000000000000111, 0.1000000000000000056 ) ) ;
#248 = PERSON_AND_ORGANIZATION_ROLE ( 'creator' ) ;
#249 = PERSON_AND_ORGANIZATION ( #219, #25 ) ;
#250 = VECTOR ( 'NONE', #241, 1000.000000000000000 ) ;
#251 = CALENDAR_DATE ( 2019, 13, 11 ) ;
#252 = ADVANCED_FACE ( 'NONE', ( #331 ), #53, .T. ) ;
#253 = DIRECTION ( 'NONE',  ( 0.0000000000000000000, -1.000000000000000000, 0.0000000000000000000 ) ) ;
#254 = APPROVAL_PERSON_ORGANIZATION ( #46, #310, #189 ) ;
#255 = AXIS2_PLACEMENT_3D ( 'NONE', #15, #324, #297 ) ;
#256 = DIRECTION ( 'NONE',  ( 1.000000000000000000, 0.0000000000000000000, 0.0000000000000000000 ) ) ;
#257 = EDGE_CURVE ( 'NONE', #315, #342, #168, .T. ) ;
#258 = CARTESIAN_POINT ( 'NONE',  ( -1.590000000000000080, 0.4500000000000000111, 0.1000000000000000056 ) ) ;
#259 = VECTOR ( 'NONE', #118, 1000.000000000000000 ) ;
#260 = LINE ( 'NONE', #287, #205 ) ;
#261 = CARTESIAN_POINT ( 'NONE',  ( 1.590000000000000080, -1.812500000000000000, 0.0000000000000000000 ) ) ;
#262 = APPROVAL ( #48, 'UNSPECIFIED' ) ;
#263 = ORIENTED_EDGE ( 'NONE', *, *, #221, .F. ) ;
#264 = ORIENTED_EDGE ( 'NONE', *, *, #333, .T. ) ;
#265 = EDGE_LOOP ( 'NONE', ( #177, #62, #151, #121, #180, #86, #295, #91 ) ) ;
#266 = ORIENTED_EDGE ( 'NONE', *, *, #103, .F. ) ;
#267 = ADVANCED_FACE ( 'NONE', ( #141 ), #54, .F. ) ;
#268 = VERTEX_POINT ( 'NONE', #27 ) ;
#269 = VERTEX_POINT ( 'NONE', #143 ) ;
#270 = CARTESIAN_POINT ( 'NONE',  ( -1.590000000000000080, 3.174999999999999822, 0.0000000000000000000 ) ) ;
#271 = CARTESIAN_POINT ( 'NONE',  ( 0.0000000000000000000, -3.174999999999999822, 0.6650000000000000355 ) ) ;
#272 =( GEOMETRIC_REPRESENTATION_CONTEXT ( 3 ) GLOBAL_UNCERTAINTY_ASSIGNED_CONTEXT ( ( #102 ) ) GLOBAL_UNIT_ASSIGNED_CONTEXT ( ( #321, #218, #24 ) ) REPRESENTATION_CONTEXT ( 'NONE', 'WORKASPACE' ) );
#273 = DIRECTION ( 'NONE',  ( 0.0000000000000000000, 1.000000000000000000, 0.0000000000000000000 ) ) ;
#274 = CARTESIAN_POINT ( 'NONE',  ( 0.0000000000000000000, 1.812500000000000000, -0.007500000000000000590 ) ) ;
#275 = AXIS2_PLACEMENT_3D ( 'NONE', #274, #68, #7 ) ;
#276 = APPROVAL_DATE_TIME ( #75, #310 ) ;
#277 = PERSON_AND_ORGANIZATION ( #219, #25 ) ;
#278 = AXIS2_PLACEMENT_3D ( 'NONE', #158, #298, #98 ) ;
#279 = EDGE_CURVE ( 'NONE', #35, #234, #113, .T. ) ;
#280 = DIRECTION ( 'NONE',  ( 0.0000000000000000000, -1.000000000000000000, 0.0000000000000000000 ) ) ;
#281 = CARTESIAN_POINT ( 'NONE',  ( 1.590000000000000080, 1.665334536937735057E-16, 0.1000000000000000056 ) ) ;
#282 = APPLICATION_CONTEXT ( 'configuration controlled 3d designs of mechanical parts and assemblies' ) ;
#283 = EDGE_CURVE ( 'NONE', #268, #35, #72, .T. ) ;
#284 = FACE_OUTER_BOUND ( 'NONE', #238, .T. ) ;
#285 = FACE_OUTER_BOUND ( 'NONE', #123, .T. ) ;
#286 = APPROVAL_PERSON_ORGANIZATION ( #249, #96, #21 ) ;
#287 = CARTESIAN_POINT ( 'NONE',  ( 0.0000000000000000000, 3.174999999999999822, 0.6650000000000000355 ) ) ;
#288 = VECTOR ( 'NONE', #88, 1000.000000000000000 ) ;
#289 = LINE ( 'NONE', #311, #348 ) ;
#290 = CC_DESIGN_DATE_AND_TIME_ASSIGNMENT ( #302, #328, ( #10 ) ) ;
#291 = VERTEX_POINT ( 'NONE', #247 ) ;
#292 = ORIENTED_EDGE ( 'NONE', *, *, #146, .T. ) ;
#293 = ORIENTED_EDGE ( 'NONE', *, *, #4, .F. ) ;
#294 = VECTOR ( 'NONE', #11, 1000.000000000000000 ) ;
#295 = ORIENTED_EDGE ( 'NONE', *, *, #146, .F. ) ;
#296 = CARTESIAN_POINT ( 'NONE',  ( 1.590000000000000080, 0.4500000000000000111, -0.007500000000000000590 ) ) ;
#297 = DIRECTION ( 'NONE',  ( 0.0000000000000000000, 0.0000000000000000000, 1.000000000000000000 ) ) ;
#298 = DIRECTION ( 'NONE',  ( 0.0000000000000000000, 1.000000000000000000, 0.0000000000000000000 ) ) ;
#299 = ADVANCED_FACE ( 'NONE', ( #136 ), #216, .T. ) ;
#300 = PERSON_AND_ORGANIZATION_ROLE ( 'design_owner' ) ;
#301 = LINE ( 'NONE', #242, #196 ) ;
#302 = DATE_AND_TIME ( #360, #87 ) ;
#303 = CALENDAR_DATE ( 2019, 13, 11 ) ;
#304 = EDGE_CURVE ( 'NONE', #234, #73, #160, .T. ) ;
#305 = PERSON_AND_ORGANIZATION ( #219, #25 ) ;
#306 = CLOSED_SHELL ( 'NONE', ( #299, #235, #182, #170, #364, #82, #267, #252, #40, #152 ) ) ;
#307 = CARTESIAN_POINT ( 'NONE',  ( 1.590000000000000080, -3.174999999999999822, -0.007500000000000000590 ) ) ;
#308 = EDGE_CURVE ( 'NONE', #99, #269, #301, .T. ) ;
#309 = DIRECTION ( 'NONE',  ( -1.000000000000000000, 0.0000000000000000000, 0.0000000000000000000 ) ) ;
#310 = APPROVAL ( #217, 'UNSPECIFIED' ) ;
#311 = CARTESIAN_POINT ( 'NONE',  ( -1.590000000000000080, -1.812500000000000000, -0.007500000000000000590 ) ) ;
#312 = ORIENTED_EDGE ( 'NONE', *, *, #304, .T. ) ;
#313 = VECTOR ( 'NONE', #273, 1000.000000000000000 ) ;
#314 = CC_DESIGN_DATE_AND_TIME_ASSIGNMENT ( #133, #223, ( #233 ) ) ;
#315 = VERTEX_POINT ( 'NONE', #14 ) ;
#316 = ORIENTED_EDGE ( 'NONE', *, *, #283, .F. ) ;
#317 = ORIENTED_EDGE ( 'NONE', *, *, #28, .F. ) ;
#318 = LINE ( 'NONE', #101, #335 ) ;
#319 = EDGE_LOOP ( 'NONE', ( #71, #293, #266, #343 ) ) ;
#320 = VECTOR ( 'NONE', #169, 1000.000000000000000 ) ;
#321 =( LENGTH_UNIT ( ) NAMED_UNIT ( * ) SI_UNIT ( .MILLI., .METRE. ) );
#322 = LINE ( 'NONE', #350, #250 ) ;
#323 = DIRECTION ( 'NONE',  ( 0.0000000000000000000, -1.000000000000000000, 0.0000000000000000000 ) ) ;
#324 = DIRECTION ( 'NONE',  ( 0.0000000000000000000, 1.000000000000000000, 0.0000000000000000000 ) ) ;
#325 = EDGE_CURVE ( 'NONE', #245, #122, #167, .T. ) ;
#326 = DIRECTION ( 'NONE',  ( 1.000000000000000000, 0.0000000000000000000, 0.0000000000000000000 ) ) ;
#327 = CALENDAR_DATE ( 2019, 13, 11 ) ;
#328 = DATE_TIME_ROLE ( 'creation_date' ) ;
#329 = EDGE_CURVE ( 'NONE', #73, #342, #128, .T. ) ;
#330 = DIRECTION ( 'NONE',  ( 0.0000000000000000000, 0.0000000000000000000, 1.000000000000000000 ) ) ;
#331 = FACE_OUTER_BOUND ( 'NONE', #319, .T. ) ;
#332 = DIRECTION ( 'NONE',  ( -1.000000000000000000, 0.0000000000000000000, 0.0000000000000000000 ) ) ;
#333 = EDGE_CURVE ( 'NONE', #291, #159, #349, .T. ) ;
#334 = CARTESIAN_POINT ( 'NONE',  ( -1.590000000000000080, 0.0000000000000000000, 0.6650000000000000355 ) ) ;
#335 = VECTOR ( 'NONE', #213, 1000.000000000000000 ) ;
#336 = EDGE_CURVE ( 'NONE', #234, #203, #74, .T. ) ;
#337 = CARTESIAN_POINT ( 'NONE',  ( 0.0000000000000000000, -1.812500000000000000, -0.007500000000000000590 ) ) ;
#338 = DIRECTION ( 'NONE',  ( 0.0000000000000000000, -1.000000000000000000, 0.0000000000000000000 ) ) ;
#339 = ORIENTED_EDGE ( 'NONE', *, *, #4, .T. ) ;
#340 = DIRECTION ( 'NONE',  ( 0.0000000000000000000, 0.0000000000000000000, 1.000000000000000000 ) ) ;
#341 = VECTOR ( 'NONE', #41, 1000.000000000000000 ) ;
#342 = VERTEX_POINT ( 'NONE', #352 ) ;
#343 = ORIENTED_EDGE ( 'NONE', *, *, #257, .F. ) ;
#344 = LINE ( 'NONE', #93, #50 ) ;
#345 = EDGE_LOOP ( 'NONE', ( #346, #69, #59, #312 ) ) ;
#346 = ORIENTED_EDGE ( 'NONE', *, *, #329, .T. ) ;
#347 = EDGE_LOOP ( 'NONE', ( #239, #5, #6, #150 ) ) ;
#348 = VECTOR ( 'NONE', #338, 1000.000000000000000 ) ;
#349 = LINE ( 'NONE', #52, #236 ) ;
#350 = CARTESIAN_POINT ( 'NONE',  ( 0.0000000000000000000, -3.174999999999999822, -0.007500000000000000590 ) ) ;
#351 = EDGE_CURVE ( 'NONE', #35, #269, #104, .T. ) ;
#352 = CARTESIAN_POINT ( 'NONE',  ( -1.590000000000000080, 3.174999999999999822, 0.6650000000000000355 ) ) ;
#353 = ORIENTED_EDGE ( 'NONE', *, *, #325, .F. ) ;
#354 = COORDINATED_UNIVERSAL_TIME_OFFSET ( 9, 0, .AHEAD. ) ;
#355 = APPLICATION_PROTOCOL_DEFINITION ( 'international standard', 'config_control_design', 1994, #138 ) ;
#356 = EDGE_CURVE ( 'NONE', #269, #291, #362, .T. ) ;
#357 = PERSON_AND_ORGANIZATION ( #219, #25 ) ;
#358 = DIRECTION ( 'NONE',  ( 0.0000000000000000000, 0.0000000000000000000, 1.000000000000000000 ) ) ;
#359 = CARTESIAN_POINT ( 'NONE',  ( 1.590000000000000080, 3.174999999999999822, -0.007500000000000000590 ) ) ;
#360 = CALENDAR_DATE ( 2019, 13, 11 ) ;
#361 = FACE_OUTER_BOUND ( 'NONE', #347, .T. ) ;
#362 = LINE ( 'NONE', #281, #76 ) ;
#363 = DIRECTION ( 'NONE',  ( 1.000000000000000000, 0.0000000000000000000, 0.0000000000000000000 ) ) ;
#364 = ADVANCED_FACE ( 'NONE', ( #9 ), #45, .T. ) ;
#365 = AXIS2_PLACEMENT_3D ( 'NONE', #261, #366, #116 ) ;
#366 = DIRECTION ( 'NONE',  ( 1.000000000000000000, 0.0000000000000000000, 0.0000000000000000000 ) ) ;
#367 = VERTEX_POINT ( 'NONE', #183 ) ;
#368 = CARTESIAN_POINT ( 'NONE',  ( 1.590000000000000080, -0.4500000000000000111, 0.0000000000000000000 ) ) ;
#369 = LINE ( 'NONE', #85, #44 ) ;
ENDSEC;
END-ISO-10303-21;
