ISO-10303-21;
HEADER;
FILE_DESCRIPTION (( 'STEP AP203' ),
    '1' );
FILE_NAME ('TLR3AW0.5mƒ¶.STEP',
    '2019-11-13T09:22:29',
    ( '' ),
    ( '' ),
    'SwSTEP 2.0',
    'SolidWorks 2019',
    '' );
FILE_SCHEMA (( 'CONFIG_CONTROL_DESIGN' ));
ENDSEC;

DATA;
#1 = FACE_OUTER_BOUND ( 'NONE', #106, .T. ) ;
#2 = VECTOR ( 'NONE', #233, 1000.000000000000000 ) ;
#3 = PERSON_AND_ORGANIZATION ( #204, #175 ) ;
#4 = ORIENTED_EDGE ( 'NONE', *, *, #170, .F. ) ;
#5 = EDGE_CURVE ( 'NONE', #34, #292, #17, .T. ) ;
#6 = DIRECTION ( 'NONE',  ( 0.0000000000000000000, 0.0000000000000000000, -1.000000000000000000 ) ) ;
#7 = ORIENTED_EDGE ( 'NONE', *, *, #312, .T. ) ;
#8 = DIRECTION ( 'NONE',  ( -1.000000000000000000, 0.0000000000000000000, 0.0000000000000000000 ) ) ;
#9 = ORIENTED_EDGE ( 'NONE', *, *, #102, .F. ) ;
#10 = VECTOR ( 'NONE', #77, 1000.000000000000000 ) ;
#11 = CC_DESIGN_PERSON_AND_ORGANIZATION_ASSIGNMENT ( #352, #133, ( #12 ) ) ;
#12 = SECURITY_CLASSIFICATION ( '', '', #324 ) ;
#13 = VERTEX_POINT ( 'NONE', #107 ) ;
#14 = LINE ( 'NONE', #152, #326 ) ;
#15 = ORIENTED_EDGE ( 'NONE', *, *, #170, .T. ) ;
#16 = COORDINATED_UNIVERSAL_TIME_OFFSET ( 9, 0, .AHEAD. ) ;
#17 = LINE ( 'NONE', #330, #116 ) ;
#18 = CARTESIAN_POINT ( 'NONE',  ( -1.590000000000000080, -3.174999999999999822, -0.007500000000000000590 ) ) ;
#19 = VECTOR ( 'NONE', #109, 1000.000000000000000 ) ;
#20 = CC_DESIGN_PERSON_AND_ORGANIZATION_ASSIGNMENT ( #103, #215, ( #169 ) ) ;
#21 = PRODUCT ( 'TLR3AW0.5mƒ¶', 'TLR3AW0.5mƒ¶', '', ( #154 ) ) ;
#22 = CARTESIAN_POINT ( 'NONE',  ( 0.0000000000000000000, 1.812500000000000000, -0.007500000000000000590 ) ) ;
#23 = CARTESIAN_POINT ( 'NONE',  ( 1.590000000000000080, 3.174999999999999822, 0.0000000000000000000 ) ) ;
#24 = DIRECTION ( 'NONE',  ( 0.0000000000000000000, 1.000000000000000000, 0.0000000000000000000 ) ) ;
#25 = EDGE_CURVE ( 'NONE', #13, #69, #276, .T. ) ;
#26 = LINE ( 'NONE', #284, #361 ) ;
#27 = DIRECTION ( 'NONE',  ( 0.0000000000000000000, 0.0000000000000000000, -1.000000000000000000 ) ) ;
#28 = EDGE_CURVE ( 'NONE', #289, #210, #331, .T. ) ;
#29 = CARTESIAN_POINT ( 'NONE',  ( -1.590000000000000080, 3.174999999999999822, 0.0000000000000000000 ) ) ;
#30 = VECTOR ( 'NONE', #255, 1000.000000000000000 ) ;
#31 = DIRECTION ( 'NONE',  ( -1.000000000000000000, 0.0000000000000000000, 0.0000000000000000000 ) ) ;
#32 = LINE ( 'NONE', #29, #209 ) ;
#33 = DATE_AND_TIME ( #287, #202 ) ;
#34 = VERTEX_POINT ( 'NONE', #167 ) ;
#35 = ADVANCED_FACE ( 'NONE', ( #274 ), #49, .T. ) ;
#36 = AXIS2_PLACEMENT_3D ( 'NONE', #118, #168, #89 ) ;
#37 = ORIENTED_EDGE ( 'NONE', *, *, #304, .T. ) ;
#38 = DIRECTION ( 'NONE',  ( -1.000000000000000000, 0.0000000000000000000, 0.0000000000000000000 ) ) ;
#39 = ORIENTED_EDGE ( 'NONE', *, *, #222, .T. ) ;
#40 = EDGE_CURVE ( 'NONE', #69, #323, #329, .T. ) ;
#41 = ORIENTED_EDGE ( 'NONE', *, *, #108, .T. ) ;
#42 = CARTESIAN_POINT ( 'NONE',  ( 0.0000000000000000000, 3.174999999999999822, -0.007500000000000000590 ) ) ;
#43 = ORIENTED_EDGE ( 'NONE', *, *, #290, .T. ) ;
#44 = DATE_AND_TIME ( #100, #104 ) ;
#45 = LINE ( 'NONE', #161, #230 ) ;
#46 = PERSON_AND_ORGANIZATION ( #204, #175 ) ;
#47 = DIRECTION ( 'NONE',  ( 1.000000000000000000, 0.0000000000000000000, 0.0000000000000000000 ) ) ;
#48 = PRODUCT_DEFINITION ( 'UNKNOWN', '', #169, #88 ) ;
#49 = PLANE ( 'NONE',  #297 ) ;
#50 = VECTOR ( 'NONE', #308, 1000.000000000000000 ) ;
#51 = FACE_OUTER_BOUND ( 'NONE', #93, .T. ) ;
#52 = ADVANCED_FACE ( 'NONE', ( #194 ), #250, .T. ) ;
#53 = LINE ( 'NONE', #359, #225 ) ;
#54 = FACE_OUTER_BOUND ( 'NONE', #351, .T. ) ;
#55 = VECTOR ( 'NONE', #279, 1000.000000000000000 ) ;
#56 = CARTESIAN_POINT ( 'NONE',  ( -1.590000000000000080, -1.812500000000000000, 0.0000000000000000000 ) ) ;
#57 = CARTESIAN_POINT ( 'NONE',  ( 0.0000000000000000000, -3.174999999999999822, 0.6650000000000000355 ) ) ;
#58 = LINE ( 'NONE', #83, #65 ) ;
#59 = LOCAL_TIME ( 18, 22, 29.00000000000000000, #16 ) ;
#60 = DIRECTION ( 'NONE',  ( 0.0000000000000000000, -1.000000000000000000, 0.0000000000000000000 ) ) ;
#61 = ADVANCED_FACE ( 'NONE', ( #51 ), #137, .T. ) ;
#62 = COORDINATED_UNIVERSAL_TIME_OFFSET ( 9, 0, .AHEAD. ) ;
#63 = CALENDAR_DATE ( 2019, 13, 11 ) ;
#64 = ORIENTED_EDGE ( 'NONE', *, *, #222, .F. ) ;
#65 = VECTOR ( 'NONE', #198, 1000.000000000000000 ) ;
#66 = APPROVAL_ROLE ( '' ) ;
#67 = ORIENTED_EDGE ( 'NONE', *, *, #285, .T. ) ;
#68 = EDGE_CURVE ( 'NONE', #288, #266, #53, .T. ) ;
#69 = VERTEX_POINT ( 'NONE', #78 ) ;
#70 = PERSON_AND_ORGANIZATION ( #204, #175 ) ;
#71 = VERTEX_POINT ( 'NONE', #243 ) ;
#72 = AXIS2_PLACEMENT_3D ( 'NONE', #257, #115, #144 ) ;
#73 = APPROVAL_DATE_TIME ( #44, #333 ) ;
#74 = ORIENTED_EDGE ( 'NONE', *, *, #180, .F. ) ;
#75 = DATE_TIME_ROLE ( 'classification_date' ) ;
#76 = ADVANCED_FACE ( 'NONE', ( #301 ), #111, .T. ) ;
#77 = DIRECTION ( 'NONE',  ( 0.0000000000000000000, 0.0000000000000000000, 1.000000000000000000 ) ) ;
#78 = CARTESIAN_POINT ( 'NONE',  ( 1.590000000000000080, 3.174999999999999822, 0.6650000000000000355 ) ) ;
#79 = DIRECTION ( 'NONE',  ( 0.0000000000000000000, 0.0000000000000000000, 1.000000000000000000 ) ) ;
#80 = VECTOR ( 'NONE', #60, 1000.000000000000000 ) ;
#81 = CC_DESIGN_PERSON_AND_ORGANIZATION_ASSIGNMENT ( #46, #354, ( #169 ) ) ;
#82 = VERTEX_POINT ( 'NONE', #271 ) ;
#83 = CARTESIAN_POINT ( 'NONE',  ( 0.0000000000000000000, -0.4500000000000000111, 0.1000000000000000056 ) ) ;
#84 = FACE_OUTER_BOUND ( 'NONE', #150, .T. ) ;
#85 = AXIS2_PLACEMENT_3D ( 'NONE', #237, #261, #92 ) ;
#86 = DIRECTION ( 'NONE',  ( -1.000000000000000000, 0.0000000000000000000, 0.0000000000000000000 ) ) ;
#87 = DIRECTION ( 'NONE',  ( 0.0000000000000000000, 0.0000000000000000000, -1.000000000000000000 ) ) ;
#88 = DESIGN_CONTEXT ( 'detailed design', #364, 'design' ) ;
#89 = DIRECTION ( 'NONE',  ( 0.0000000000000000000, 0.0000000000000000000, 1.000000000000000000 ) ) ;
#90 = EDGE_CURVE ( 'NONE', #292, #71, #223, .T. ) ;
#91 = APPLICATION_PROTOCOL_DEFINITION ( 'international standard', 'config_control_design', 1994, #238 ) ;
#92 = DIRECTION ( 'NONE',  ( 1.000000000000000000, 0.0000000000000000000, 0.0000000000000000000 ) ) ;
#93 = EDGE_LOOP ( 'NONE', ( #155, #9, #95, #39, #360, #328, #241, #239 ) ) ;
#94 = APPLICATION_PROTOCOL_DEFINITION ( 'international standard', 'config_control_design', 1994, #364 ) ;
#95 = ORIENTED_EDGE ( 'NONE', *, *, #68, .T. ) ;
#96 = CARTESIAN_POINT ( 'NONE',  ( 1.590000000000000080, -0.4500000000000000111, 0.1000000000000000056 ) ) ;
#97 = VERTEX_POINT ( 'NONE', #299 ) ;
#98 = CARTESIAN_POINT ( 'NONE',  ( -1.590000000000000080, 0.4500000000000000111, 0.0000000000000000000 ) ) ;
#99 = ORIENTED_EDGE ( 'NONE', *, *, #5, .F. ) ;
#100 = CALENDAR_DATE ( 2019, 13, 11 ) ;
#101 = ORIENTED_EDGE ( 'NONE', *, *, #28, .T. ) ;
#102 = EDGE_CURVE ( 'NONE', #288, #323, #45, .T. ) ;
#103 = PERSON_AND_ORGANIZATION ( #204, #175 ) ;
#104 = LOCAL_TIME ( 18, 22, 29.00000000000000000, #189 ) ;
#105 = ORIENTED_EDGE ( 'NONE', *, *, #312, .F. ) ;
#106 = EDGE_LOOP ( 'NONE', ( #235, #101, #74, #232, #344, #153, #99, #7 ) ) ;
#107 = CARTESIAN_POINT ( 'NONE',  ( 1.590000000000000080, 3.174999999999999822, -0.007500000000000000590 ) ) ;
#108 = EDGE_CURVE ( 'NONE', #210, #69, #216, .T. ) ;
#109 = DIRECTION ( 'NONE',  ( 0.0000000000000000000, 1.000000000000000000, 0.0000000000000000000 ) ) ;
#110 = LOCAL_TIME ( 18, 22, 29.00000000000000000, #315 ) ;
#111 = PLANE ( 'NONE',  #254 ) ;
#112 = DIRECTION ( 'NONE',  ( -1.000000000000000000, 0.0000000000000000000, 0.0000000000000000000 ) ) ;
#113 = PRODUCT_DEFINITION_SHAPE ( 'NONE', 'NONE',  #48 ) ;
#114 = CC_DESIGN_PERSON_AND_ORGANIZATION_ASSIGNMENT ( #151, #317, ( #21 ) ) ;
#115 = DIRECTION ( 'NONE',  ( 0.0000000000000000000, 0.0000000000000000000, 1.000000000000000000 ) ) ;
#116 = VECTOR ( 'NONE', #217, 1000.000000000000000 ) ;
#117 = PLANE ( 'NONE',  #72 ) ;
#118 = CARTESIAN_POINT ( 'NONE',  ( 0.0000000000000000000, 3.174999999999999822, 0.0000000000000000000 ) ) ;
#119 = PRODUCT_RELATED_PRODUCT_CATEGORY ( 'detail', '', ( #21 ) ) ;
#120 = CARTESIAN_POINT ( 'NONE',  ( -1.590000000000000080, 3.174999999999999822, 0.6650000000000000355 ) ) ;
#121 = AXIS2_PLACEMENT_3D ( 'NONE', #156, #6, #38 ) ;
#122 = APPROVAL_STATUS ( 'not_yet_approved' ) ;
#123 = ORIENTED_EDGE ( 'NONE', *, *, #245, .T. ) ;
#124 = CARTESIAN_POINT ( 'NONE',  ( 1.590000000000000080, 0.4500000000000000111, 0.1000000000000000056 ) ) ;
#125 = EDGE_LOOP ( 'NONE', ( #183, #179, #105, #214 ) ) ;
#126 = PLANE ( 'NONE',  #121 ) ;
#127 = EDGE_LOOP ( 'NONE', ( #316, #294, #321, #186 ) ) ;
#128 = VERTEX_POINT ( 'NONE', #18 ) ;
#129 =( NAMED_UNIT ( * ) PLANE_ANGLE_UNIT ( ) SI_UNIT ( $, .RADIAN. ) );
#130 = ORIENTED_EDGE ( 'NONE', *, *, #290, .F. ) ;
#131 = EDGE_CURVE ( 'NONE', #97, #248, #135, .T. ) ;
#132 = MANIFOLD_SOLID_BREP ( '²ÝÎß°Ä1', #366 ) ;
#133 = PERSON_AND_ORGANIZATION_ROLE ( 'classification_officer' ) ;
#134 = ORIENTED_EDGE ( 'NONE', *, *, #40, .F. ) ;
#135 = LINE ( 'NONE', #229, #50 ) ;
#136 = CARTESIAN_POINT ( 'NONE',  ( -1.590000000000000080, 0.0000000000000000000, 0.6650000000000000355 ) ) ;
#137 = PLANE ( 'NONE',  #318 ) ;
#138 = VECTOR ( 'NONE', #47, 1000.000000000000000 ) ;
#139 = DIRECTION ( 'NONE',  ( 0.0000000000000000000, 1.000000000000000000, 0.0000000000000000000 ) ) ;
#140 = APPROVAL_PERSON_ORGANIZATION ( #242, #333, #240 ) ;
#141 = LINE ( 'NONE', #363, #259 ) ;
#142 = ADVANCED_FACE ( 'NONE', ( #84 ), #117, .F. ) ;
#143 = LINE ( 'NONE', #224, #341 ) ;
#144 = DIRECTION ( 'NONE',  ( 1.000000000000000000, 0.0000000000000000000, 0.0000000000000000000 ) ) ;
#145 = VECTOR ( 'NONE', #226, 1000.000000000000000 ) ;
#146 = APPROVAL ( #122, 'UNSPECIFIED' ) ;
#147 = DIRECTION ( 'NONE',  ( 0.0000000000000000000, 0.0000000000000000000, 1.000000000000000000 ) ) ;
#148 = CARTESIAN_POINT ( 'NONE',  ( -1.590000000000000080, -3.174999999999999822, 0.6650000000000000355 ) ) ;
#149 = LINE ( 'NONE', #98, #181 ) ;
#150 = EDGE_LOOP ( 'NONE', ( #15, #191, #43, #67 ) ) ;
#151 = PERSON_AND_ORGANIZATION ( #204, #175 ) ;
#152 = CARTESIAN_POINT ( 'NONE',  ( -1.590000000000000080, -1.812500000000000000, -0.007500000000000000590 ) ) ;
#153 = ORIENTED_EDGE ( 'NONE', *, *, #90, .F. ) ;
#154 = MECHANICAL_CONTEXT ( 'NONE', #238, 'mechanical' ) ;
#155 = ORIENTED_EDGE ( 'NONE', *, *, #40, .T. ) ;
#156 = CARTESIAN_POINT ( 'NONE',  ( 0.0000000000000000000, -1.812500000000000000, -0.007500000000000000590 ) ) ;
#157 = EDGE_CURVE ( 'NONE', #128, #289, #280, .T. ) ;
#158 = ORIENTED_EDGE ( 'NONE', *, *, #245, .F. ) ;
#159 = ADVANCED_BREP_SHAPE_REPRESENTATION ( 'TLR3AW0.5mƒ¶', ( #132, #85 ), #197 ) ;
#160 = CALENDAR_DATE ( 2019, 13, 11 ) ;
#161 = CARTESIAN_POINT ( 'NONE',  ( 1.590000000000000080, -3.174999999999999822, 0.0000000000000000000 ) ) ;
#162 = APPROVAL_DATE_TIME ( #270, #146 ) ;
#163 = ORIENTED_EDGE ( 'NONE', *, *, #131, .T. ) ;
#164 = ADVANCED_FACE ( 'NONE', ( #1 ), #176, .T. ) ;
#165 = CARTESIAN_POINT ( 'NONE',  ( 0.0000000000000000000, -0.4500000000000000111, 0.0000000000000000000 ) ) ;
#166 = ORIENTED_EDGE ( 'NONE', *, *, #253, .T. ) ;
#167 = CARTESIAN_POINT ( 'NONE',  ( -1.590000000000000080, -0.4500000000000000111, -0.007500000000000000590 ) ) ;
#168 = DIRECTION ( 'NONE',  ( 0.0000000000000000000, 1.000000000000000000, 0.0000000000000000000 ) ) ;
#169 = PRODUCT_DEFINITION_FORMATION_WITH_SPECIFIED_SOURCE ( 'ANY', '', #21, .NOT_KNOWN. ) ;
#170 = EDGE_CURVE ( 'NONE', #295, #292, #58, .T. ) ;
#171 = LINE ( 'NONE', #57, #278 ) ;
#172 = DIRECTION ( 'NONE',  ( 0.0000000000000000000, -1.000000000000000000, 0.0000000000000000000 ) ) ;
#173 = EDGE_CURVE ( 'NONE', #248, #13, #200, .T. ) ;
#174 = FACE_OUTER_BOUND ( 'NONE', #247, .T. ) ;
#175 = ORGANIZATION ( 'UNSPECIFIED', 'UNSPECIFIED', '' ) ;
#176 = PLANE ( 'NONE',  #303 ) ;
#177 = DIRECTION ( 'NONE',  ( 1.000000000000000000, 0.0000000000000000000, 0.0000000000000000000 ) ) ;
#178 = DIRECTION ( 'NONE',  ( 0.0000000000000000000, -1.000000000000000000, 0.0000000000000000000 ) ) ;
#179 = ORIENTED_EDGE ( 'NONE', *, *, #234, .F. ) ;
#180 = EDGE_CURVE ( 'NONE', #82, #210, #32, .T. ) ;
#181 = VECTOR ( 'NONE', #347, 1000.000000000000000 ) ;
#182 = LINE ( 'NONE', #42, #283 ) ;
#183 = ORIENTED_EDGE ( 'NONE', *, *, #68, .F. ) ;
#184 = CC_DESIGN_PERSON_AND_ORGANIZATION_ASSIGNMENT ( #70, #185, ( #48 ) ) ;
#185 = PERSON_AND_ORGANIZATION_ROLE ( 'creator' ) ;
#186 = ORIENTED_EDGE ( 'NONE', *, *, #304, .F. ) ;
#187 = SHAPE_DEFINITION_REPRESENTATION ( #113, #159 ) ;
#188 = DIRECTION ( 'NONE',  ( 0.0000000000000000000, 1.000000000000000000, 0.0000000000000000000 ) ) ;
#189 = COORDINATED_UNIVERSAL_TIME_OFFSET ( 9, 0, .AHEAD. ) ;
#190 = CARTESIAN_POINT ( 'NONE',  ( 0.0000000000000000000, 3.174999999999999822, 0.6650000000000000355 ) ) ;
#191 = ORIENTED_EDGE ( 'NONE', *, *, #90, .T. ) ;
#192 = VECTOR ( 'NONE', #307, 1000.000000000000000 ) ;
#193 = CARTESIAN_POINT ( 'NONE',  ( 1.590000000000000080, 0.0000000000000000000, 0.6650000000000000355 ) ) ;
#194 = FACE_OUTER_BOUND ( 'NONE', #127, .T. ) ;
#195 = ADVANCED_FACE ( 'NONE', ( #174 ), #334, .T. ) ;
#196 = CARTESIAN_POINT ( 'NONE',  ( 0.0000000000000000000, -3.174999999999999822, 0.0000000000000000000 ) ) ;
#197 =( GEOMETRIC_REPRESENTATION_CONTEXT ( 3 ) GLOBAL_UNCERTAINTY_ASSIGNED_CONTEXT ( ( #221 ) ) GLOBAL_UNIT_ASSIGNED_CONTEXT ( ( #320, #129, #293 ) ) REPRESENTATION_CONTEXT ( 'NONE', 'WORKASPACE' ) );
#198 = DIRECTION ( 'NONE',  ( -1.000000000000000000, 0.0000000000000000000, 0.0000000000000000000 ) ) ;
#199 = DIRECTION ( 'NONE',  ( 0.0000000000000000000, 0.0000000000000000000, 1.000000000000000000 ) ) ;
#200 = LINE ( 'NONE', #227, #55 ) ;
#201 = LINE ( 'NONE', #314, #80 ) ;
#202 = LOCAL_TIME ( 18, 22, 29.00000000000000000, #62 ) ;
#203 = APPROVAL_STATUS ( 'not_yet_approved' ) ;
#204 = PERSON ( 'UNSPECIFIED', 'UNSPECIFIED', 'UNSPECIFIED', ('UNSPECIFIED'), ('UNSPECIFIED'), ('UNSPECIFIED') ) ;
#205 = EDGE_CURVE ( 'NONE', #248, #353, #310, .T. ) ;
#206 = ORIENTED_EDGE ( 'NONE', *, *, #28, .F. ) ;
#207 = LINE ( 'NONE', #268, #2 ) ;
#208 = ORIENTED_EDGE ( 'NONE', *, *, #367, .F. ) ;
#209 = VECTOR ( 'NONE', #147, 1000.000000000000000 ) ;
#210 = VERTEX_POINT ( 'NONE', #120 ) ;
#211 = APPROVAL ( #203, 'UNSPECIFIED' ) ;
#212 = ORIENTED_EDGE ( 'NONE', *, *, #157, .F. ) ;
#213 = CALENDAR_DATE ( 2019, 13, 11 ) ;
#214 = ORIENTED_EDGE ( 'NONE', *, *, #253, .F. ) ;
#215 = PERSON_AND_ORGANIZATION_ROLE ( 'design_supplier' ) ;
#216 = LINE ( 'NONE', #190, #138 ) ;
#217 = DIRECTION ( 'NONE',  ( 0.0000000000000000000, 0.0000000000000000000, 1.000000000000000000 ) ) ;
#218 = DIRECTION ( 'NONE',  ( -1.000000000000000000, 0.0000000000000000000, 0.0000000000000000000 ) ) ;
#219 = APPROVAL_PERSON_ORGANIZATION ( #350, #211, #66 ) ;
#220 = CARTESIAN_POINT ( 'NONE',  ( 1.590000000000000080, -1.812500000000000000, 0.0000000000000000000 ) ) ;
#221 = UNCERTAINTY_MEASURE_WITH_UNIT (LENGTH_MEASURE( 1.000000000000000082E-05 ), #320, 'distance_accuracy_value', 'NONE');
#222 = EDGE_CURVE ( 'NONE', #266, #295, #143, .T. ) ;
#223 = LINE ( 'NONE', #332, #296 ) ;
#224 = CARTESIAN_POINT ( 'NONE',  ( 1.590000000000000080, -0.4500000000000000111, 0.0000000000000000000 ) ) ;
#225 = VECTOR ( 'NONE', #24, 1000.000000000000000 ) ;
#226 = DIRECTION ( 'NONE',  ( 0.0000000000000000000, 0.0000000000000000000, 1.000000000000000000 ) ) ;
#227 = CARTESIAN_POINT ( 'NONE',  ( 1.590000000000000080, 1.812500000000000000, -0.007500000000000000590 ) ) ;
#228 = DIRECTION ( 'NONE',  ( 0.0000000000000000000, -1.000000000000000000, 0.0000000000000000000 ) ) ;
#229 = CARTESIAN_POINT ( 'NONE',  ( 0.0000000000000000000, 0.4500000000000000111, -0.007500000000000000590 ) ) ;
#230 = VECTOR ( 'NONE', #355, 1000.000000000000000 ) ;
#231 = ORIENTED_EDGE ( 'NONE', *, *, #180, .T. ) ;
#232 = ORIENTED_EDGE ( 'NONE', *, *, #339, .T. ) ;
#233 = DIRECTION ( 'NONE',  ( 0.0000000000000000000, -1.000000000000000000, 0.0000000000000000000 ) ) ;
#234 = EDGE_CURVE ( 'NONE', #128, #288, #252, .T. ) ;
#235 = ORIENTED_EDGE ( 'NONE', *, *, #157, .T. ) ;
#236 = AXIS2_PLACEMENT_3D ( 'NONE', #196, #172, #87 ) ;
#237 = CARTESIAN_POINT ( 'NONE',  ( 0.0000000000000000000, 0.0000000000000000000, 0.0000000000000000000 ) ) ;
#238 = APPLICATION_CONTEXT ( 'configuration controlled 3d designs of mechanical parts and assemblies' ) ;
#239 = ORIENTED_EDGE ( 'NONE', *, *, #25, .T. ) ;
#240 = APPROVAL_ROLE ( '' ) ;
#241 = ORIENTED_EDGE ( 'NONE', *, *, #173, .T. ) ;
#242 = PERSON_AND_ORGANIZATION ( #204, #175 ) ;
#243 = CARTESIAN_POINT ( 'NONE',  ( -1.590000000000000080, 0.4500000000000000111, 0.1000000000000000056 ) ) ;
#244 = CC_DESIGN_APPROVAL ( #146, ( #169 ) ) ;
#245 = EDGE_CURVE ( 'NONE', #323, #289, #171, .T. ) ;
#246 = CARTESIAN_POINT ( 'NONE',  ( 0.0000000000000000000, 0.0000000000000000000, 0.6650000000000000355 ) ) ;
#247 = EDGE_LOOP ( 'NONE', ( #264, #130, #208, #163 ) ) ;
#248 = VERTEX_POINT ( 'NONE', #368 ) ;
#249 = ADVANCED_FACE ( 'NONE', ( #251 ), #338, .T. ) ;
#250 = PLANE ( 'NONE',  #348 ) ;
#251 = FACE_OUTER_BOUND ( 'NONE', #325, .T. ) ;
#252 = LINE ( 'NONE', #365, #30 ) ;
#253 = EDGE_CURVE ( 'NONE', #266, #34, #26, .T. ) ;
#254 = AXIS2_PLACEMENT_3D ( 'NONE', #165, #139, #362 ) ;
#255 = DIRECTION ( 'NONE',  ( 1.000000000000000000, 0.0000000000000000000, 0.0000000000000000000 ) ) ;
#256 = CARTESIAN_POINT ( 'NONE',  ( 1.590000000000000080, -0.4500000000000000111, -0.007500000000000000590 ) ) ;
#257 = CARTESIAN_POINT ( 'NONE',  ( 0.0000000000000000000, 1.110223024625155801E-16, 0.1000000000000000056 ) ) ;
#258 = DATE_TIME_ROLE ( 'creation_date' ) ;
#259 = VECTOR ( 'NONE', #177, 1000.000000000000000 ) ;
#260 = ORIENTED_EDGE ( 'NONE', *, *, #25, .F. ) ;
#261 = DIRECTION ( 'NONE',  ( 0.0000000000000000000, 0.0000000000000000000, 1.000000000000000000 ) ) ;
#262 = ORIENTED_EDGE ( 'NONE', *, *, #234, .T. ) ;
#263 = CARTESIAN_POINT ( 'NONE',  ( -1.590000000000000080, -0.4500000000000000111, 0.1000000000000000056 ) ) ;
#264 = ORIENTED_EDGE ( 'NONE', *, *, #205, .T. ) ;
#265 = CARTESIAN_POINT ( 'NONE',  ( 1.590000000000000080, -3.174999999999999822, 0.6650000000000000355 ) ) ;
#266 = VERTEX_POINT ( 'NONE', #256 ) ;
#267 = LOCAL_TIME ( 18, 22, 29.00000000000000000, #272 ) ;
#268 = CARTESIAN_POINT ( 'NONE',  ( -1.590000000000000080, 1.812500000000000000, -0.007500000000000000590 ) ) ;
#269 = EDGE_LOOP ( 'NONE', ( #158, #134, #346, #206 ) ) ;
#270 = DATE_AND_TIME ( #160, #59 ) ;
#271 = CARTESIAN_POINT ( 'NONE',  ( -1.590000000000000080, 3.174999999999999822, -0.007500000000000000590 ) ) ;
#272 = COORDINATED_UNIVERSAL_TIME_OFFSET ( 9, 0, .AHEAD. ) ;
#273 = DIRECTION ( 'NONE',  ( 0.0000000000000000000, 0.0000000000000000000, -1.000000000000000000 ) ) ;
#274 = FACE_OUTER_BOUND ( 'NONE', #269, .T. ) ;
#275 = ADVANCED_FACE ( 'NONE', ( #54 ), #369, .T. ) ;
#276 = LINE ( 'NONE', #23, #10 ) ;
#277 = DIRECTION ( 'NONE',  ( 1.000000000000000000, 0.0000000000000000000, 0.0000000000000000000 ) ) ;
#278 = VECTOR ( 'NONE', #86, 1000.000000000000000 ) ;
#279 = DIRECTION ( 'NONE',  ( 0.0000000000000000000, 1.000000000000000000, 0.0000000000000000000 ) ) ;
#280 = LINE ( 'NONE', #282, #192 ) ;
#281 = CC_DESIGN_DATE_AND_TIME_ASSIGNMENT ( #327, #75, ( #12 ) ) ;
#282 = CARTESIAN_POINT ( 'NONE',  ( -1.590000000000000080, -3.174999999999999822, 0.0000000000000000000 ) ) ;
#283 = VECTOR ( 'NONE', #8, 1000.000000000000000 ) ;
#284 = CARTESIAN_POINT ( 'NONE',  ( 0.0000000000000000000, -0.4500000000000000111, -0.007500000000000000590 ) ) ;
#285 = EDGE_CURVE ( 'NONE', #353, #295, #201, .T. ) ;
#286 = CARTESIAN_POINT ( 'NONE',  ( 1.590000000000000080, -3.174999999999999822, -0.007500000000000000590 ) ) ;
#287 = CALENDAR_DATE ( 2019, 13, 11 ) ;
#288 = VERTEX_POINT ( 'NONE', #286 ) ;
#289 = VERTEX_POINT ( 'NONE', #148 ) ;
#290 = EDGE_CURVE ( 'NONE', #71, #353, #141, .T. ) ;
#291 = APPROVAL_DATE_TIME ( #322, #211 ) ;
#292 = VERTEX_POINT ( 'NONE', #263 ) ;
#293 =( NAMED_UNIT ( * ) SI_UNIT ( $, .STERADIAN. ) SOLID_ANGLE_UNIT ( ) );
#294 = ORIENTED_EDGE ( 'NONE', *, *, #131, .F. ) ;
#295 = VERTEX_POINT ( 'NONE', #96 ) ;
#296 = VECTOR ( 'NONE', #188, 1000.000000000000000 ) ;
#297 = AXIS2_PLACEMENT_3D ( 'NONE', #246, #79, #277 ) ;
#298 = APPROVAL_STATUS ( 'not_yet_approved' ) ;
#299 = CARTESIAN_POINT ( 'NONE',  ( -1.590000000000000080, 0.4500000000000000111, -0.007500000000000000590 ) ) ;
#300 = APPROVAL_ROLE ( '' ) ;
#301 = FACE_OUTER_BOUND ( 'NONE', #349, .T. ) ;
#302 = DIRECTION ( 'NONE',  ( 0.0000000000000000000, 0.0000000000000000000, -1.000000000000000000 ) ) ;
#303 = AXIS2_PLACEMENT_3D ( 'NONE', #56, #112, #311 ) ;
#304 = EDGE_CURVE ( 'NONE', #13, #82, #182, .T. ) ;
#305 = ORIENTED_EDGE ( 'NONE', *, *, #102, .T. ) ;
#306 = DIRECTION ( 'NONE',  ( 1.000000000000000000, 0.0000000000000000000, 0.0000000000000000000 ) ) ;
#307 = DIRECTION ( 'NONE',  ( 0.0000000000000000000, 0.0000000000000000000, 1.000000000000000000 ) ) ;
#308 = DIRECTION ( 'NONE',  ( 1.000000000000000000, 0.0000000000000000000, 0.0000000000000000000 ) ) ;
#309 = ADVANCED_FACE ( 'NONE', ( #343 ), #126, .T. ) ;
#310 = LINE ( 'NONE', #337, #145 ) ;
#311 = DIRECTION ( 'NONE',  ( 0.0000000000000000000, 0.0000000000000000000, 1.000000000000000000 ) ) ;
#312 = EDGE_CURVE ( 'NONE', #34, #128, #14, .T. ) ;
#313 = CC_DESIGN_APPROVAL ( #211, ( #48 ) ) ;
#314 = CARTESIAN_POINT ( 'NONE',  ( 1.590000000000000080, 1.110223024625155801E-16, 0.1000000000000000056 ) ) ;
#315 = COORDINATED_UNIVERSAL_TIME_OFFSET ( 9, 0, .AHEAD. ) ;
#316 = ORIENTED_EDGE ( 'NONE', *, *, #173, .F. ) ;
#317 = PERSON_AND_ORGANIZATION_ROLE ( 'design_owner' ) ;
#318 = AXIS2_PLACEMENT_3D ( 'NONE', #220, #306, #273 ) ;
#319 = ORIENTED_EDGE ( 'NONE', *, *, #5, .T. ) ;
#320 =( LENGTH_UNIT ( ) NAMED_UNIT ( * ) SI_UNIT ( .MILLI., .METRE. ) );
#321 = ORIENTED_EDGE ( 'NONE', *, *, #339, .F. ) ;
#322 = DATE_AND_TIME ( #63, #110 ) ;
#323 = VERTEX_POINT ( 'NONE', #265 ) ;
#324 = SECURITY_CLASSIFICATION_LEVEL ( 'unclassified' ) ;
#325 = EDGE_LOOP ( 'NONE', ( #305, #123, #212, #262 ) ) ;
#326 = VECTOR ( 'NONE', #178, 1000.000000000000000 ) ;
#327 = DATE_AND_TIME ( #213, #267 ) ;
#328 = ORIENTED_EDGE ( 'NONE', *, *, #205, .F. ) ;
#329 = LINE ( 'NONE', #193, #335 ) ;
#330 = CARTESIAN_POINT ( 'NONE',  ( -1.590000000000000080, -0.4500000000000000111, 0.0000000000000000000 ) ) ;
#331 = LINE ( 'NONE', #136, #19 ) ;
#332 = CARTESIAN_POINT ( 'NONE',  ( -1.590000000000000080, 1.110223024625155801E-16, 0.1000000000000000056 ) ) ;
#333 = APPROVAL ( #298, 'UNSPECIFIED' ) ;
#334 = PLANE ( 'NONE',  #356 ) ;
#335 = VECTOR ( 'NONE', #358, 1000.000000000000000 ) ;
#336 = CC_DESIGN_SECURITY_CLASSIFICATION ( #12, ( #169 ) ) ;
#337 = CARTESIAN_POINT ( 'NONE',  ( 1.590000000000000080, 0.4500000000000000111, 0.0000000000000000000 ) ) ;
#338 = PLANE ( 'NONE',  #236 ) ;
#339 = EDGE_CURVE ( 'NONE', #82, #97, #207, .T. ) ;
#340 = CARTESIAN_POINT ( 'NONE',  ( 0.0000000000000000000, 0.4500000000000000111, 0.0000000000000000000 ) ) ;
#341 = VECTOR ( 'NONE', #199, 1000.000000000000000 ) ;
#342 = APPROVAL_PERSON_ORGANIZATION ( #3, #146, #300 ) ;
#343 = FACE_OUTER_BOUND ( 'NONE', #125, .T. ) ;
#344 = ORIENTED_EDGE ( 'NONE', *, *, #367, .T. ) ;
#345 = CC_DESIGN_DATE_AND_TIME_ASSIGNMENT ( #33, #258, ( #48 ) ) ;
#346 = ORIENTED_EDGE ( 'NONE', *, *, #108, .F. ) ;
#347 = DIRECTION ( 'NONE',  ( 0.0000000000000000000, 0.0000000000000000000, 1.000000000000000000 ) ) ;
#348 = AXIS2_PLACEMENT_3D ( 'NONE', #22, #302, #218 ) ;
#349 = EDGE_LOOP ( 'NONE', ( #319, #4, #64, #166 ) ) ;
#350 = PERSON_AND_ORGANIZATION ( #204, #175 ) ;
#351 = EDGE_LOOP ( 'NONE', ( #231, #41, #260, #37 ) ) ;
#352 = PERSON_AND_ORGANIZATION ( #204, #175 ) ;
#353 = VERTEX_POINT ( 'NONE', #124 ) ;
#354 = PERSON_AND_ORGANIZATION_ROLE ( 'creator' ) ;
#355 = DIRECTION ( 'NONE',  ( 0.0000000000000000000, 0.0000000000000000000, 1.000000000000000000 ) ) ;
#356 = AXIS2_PLACEMENT_3D ( 'NONE', #340, #228, #27 ) ;
#357 = CC_DESIGN_APPROVAL ( #333, ( #12 ) ) ;
#358 = DIRECTION ( 'NONE',  ( 0.0000000000000000000, -1.000000000000000000, 0.0000000000000000000 ) ) ;
#359 = CARTESIAN_POINT ( 'NONE',  ( 1.590000000000000080, -1.812500000000000000, -0.007500000000000000590 ) ) ;
#360 = ORIENTED_EDGE ( 'NONE', *, *, #285, .F. ) ;
#361 = VECTOR ( 'NONE', #31, 1000.000000000000000 ) ;
#362 = DIRECTION ( 'NONE',  ( 0.0000000000000000000, 0.0000000000000000000, 1.000000000000000000 ) ) ;
#363 = CARTESIAN_POINT ( 'NONE',  ( 0.0000000000000000000, 0.4500000000000000111, 0.1000000000000000056 ) ) ;
#364 = APPLICATION_CONTEXT ( 'configuration controlled 3d designs of mechanical parts and assemblies' ) ;
#365 = CARTESIAN_POINT ( 'NONE',  ( 0.0000000000000000000, -3.174999999999999822, -0.007500000000000000590 ) ) ;
#366 = CLOSED_SHELL ( 'NONE', ( #76, #249, #164, #61, #195, #275, #35, #142, #52, #309 ) ) ;
#367 = EDGE_CURVE ( 'NONE', #97, #71, #149, .T. ) ;
#368 = CARTESIAN_POINT ( 'NONE',  ( 1.590000000000000080, 0.4500000000000000111, -0.007500000000000000590 ) ) ;
#369 = PLANE ( 'NONE',  #36 ) ;
ENDSEC;
END-ISO-10303-21;
