ISO-10303-21;
HEADER;
FILE_DESCRIPTION (( 'STEP AP203' ),
    '1' );
FILE_NAME ('TLRH2A100mƒ¶.STEP',
    '2019-11-13T09:17:39',
    ( '' ),
    ( '' ),
    'SwSTEP 2.0',
    'SolidWorks 2019',
    '' );
FILE_SCHEMA (( 'CONFIG_CONTROL_DESIGN' ));
ENDSEC;

DATA;
#1 = LOCAL_TIME ( 18, 17, 39.00000000000000000, #165 ) ;
#2 = LINE ( 'NONE', #94, #3 ) ;
#3 = VECTOR ( 'NONE', #90, 1000.000000000000000 ) ;
#4 = EDGE_CURVE ( 'NONE', #161, #327, #139, .T. ) ;
#5 = DESIGN_CONTEXT ( 'detailed design', #12, 'design' ) ;
#6 = DIRECTION ( 'NONE',  ( 1.000000000000000000, 0.0000000000000000000, 0.0000000000000000000 ) ) ;
#7 = ADVANCED_BREP_SHAPE_REPRESENTATION ( 'TLRH2A100mƒ¶', ( #29, #364 ), #216 ) ;
#8 = ADVANCED_FACE ( 'NONE', ( #281 ), #311, .T. ) ;
#9 = ORIENTED_EDGE ( 'NONE', *, *, #337, .F. ) ;
#10 = CARTESIAN_POINT ( 'NONE',  ( -0.6250000000000000000, 1.000000000000000000, 0.0000000000000000000 ) ) ;
#11 = ORIENTED_EDGE ( 'NONE', *, *, #107, .F. ) ;
#12 = APPLICATION_CONTEXT ( 'configuration controlled 3d designs of mechanical parts and assemblies' ) ;
#13 = CARTESIAN_POINT ( 'NONE',  ( 0.6250000000000000000, 1.000000000000000000, 0.2400000000000000189 ) ) ;
#14 = ORIENTED_EDGE ( 'NONE', *, *, #4, .F. ) ;
#15 = ADVANCED_FACE ( 'NONE', ( #357 ), #60, .T. ) ;
#16 = DIRECTION ( 'NONE',  ( 1.000000000000000000, 0.0000000000000000000, 0.0000000000000000000 ) ) ;
#17 = EDGE_LOOP ( 'NONE', ( #253, #129, #314, #213 ) ) ;
#18 = ORIENTED_EDGE ( 'NONE', *, *, #283, .F. ) ;
#19 = CALENDAR_DATE ( 2019, 13, 11 ) ;
#20 = CARTESIAN_POINT ( 'NONE',  ( -0.6250000000000000000, -0.8249999999999999556, -0.01250000000000000069 ) ) ;
#21 = AXIS2_PLACEMENT_3D ( 'NONE', #305, #85, #111 ) ;
#22 = APPROVAL_ROLE ( '' ) ;
#23 = CARTESIAN_POINT ( 'NONE',  ( 0.6250000000000000000, -1.000000000000000000, 0.2400000000000000189 ) ) ;
#24 = DATE_AND_TIME ( #248, #168 ) ;
#25 = DIRECTION ( 'NONE',  ( 0.0000000000000000000, 0.0000000000000000000, -1.000000000000000000 ) ) ;
#26 = ADVANCED_FACE ( 'NONE', ( #363 ), #109, .T. ) ;
#27 = PERSON_AND_ORGANIZATION ( #291, #125 ) ;
#28 = CARTESIAN_POINT ( 'NONE',  ( 0.0000000000000000000, -0.6500000000000000222, -0.01250000000000000069 ) ) ;
#29 = MANIFOLD_SOLID_BREP ( '²ÝÎß°Ä1', #366 ) ;
#30 = VECTOR ( 'NONE', #252, 1000.000000000000000 ) ;
#31 = PLANE ( 'NONE',  #118 ) ;
#32 = DIRECTION ( 'NONE',  ( 0.0000000000000000000, 0.0000000000000000000, 1.000000000000000000 ) ) ;
#33 = EDGE_CURVE ( 'NONE', #65, #67, #141, .T. ) ;
#34 = DIRECTION ( 'NONE',  ( 0.0000000000000000000, 1.000000000000000000, 0.0000000000000000000 ) ) ;
#35 = CARTESIAN_POINT ( 'NONE',  ( 0.0000000000000000000, -1.000000000000000000, 0.2400000000000000189 ) ) ;
#36 = ADVANCED_FACE ( 'NONE', ( #147 ), #31, .T. ) ;
#37 = CARTESIAN_POINT ( 'NONE',  ( 0.6250000000000000000, -0.6500000000000000222, 0.05000000000000000278 ) ) ;
#38 = ORIENTED_EDGE ( 'NONE', *, *, #75, .F. ) ;
#39 = LINE ( 'NONE', #10, #110 ) ;
#40 = ORIENTED_EDGE ( 'NONE', *, *, #349, .F. ) ;
#41 = DIRECTION ( 'NONE',  ( 0.0000000000000000000, 1.000000000000000000, 0.0000000000000000000 ) ) ;
#42 = APPLICATION_CONTEXT ( 'configuration controlled 3d designs of mechanical parts and assemblies' ) ;
#43 = EDGE_LOOP ( 'NONE', ( #166, #246, #72, #287 ) ) ;
#44 = EDGE_CURVE ( 'NONE', #164, #329, #117, .T. ) ;
#45 = LOCAL_TIME ( 18, 17, 39.00000000000000000, #335 ) ;
#46 = CARTESIAN_POINT ( 'NONE',  ( -0.6250000000000000000, -1.000000000000000000, 0.2400000000000000189 ) ) ;
#47 = ORIENTED_EDGE ( 'NONE', *, *, #319, .T. ) ;
#48 = VECTOR ( 'NONE', #91, 1000.000000000000000 ) ;
#49 = APPROVAL_DATE_TIME ( #231, #201 ) ;
#50 = ORIENTED_EDGE ( 'NONE', *, *, #337, .T. ) ;
#51 = MECHANICAL_CONTEXT ( 'NONE', #42, 'mechanical' ) ;
#52 = APPROVAL ( #114, 'UNSPECIFIED' ) ;
#53 = CARTESIAN_POINT ( 'NONE',  ( -0.6250000000000000000, 0.6500000000000000222, -0.01250000000000000069 ) ) ;
#54 = PERSON_AND_ORGANIZATION_ROLE ( 'creator' ) ;
#55 = CC_DESIGN_APPROVAL ( #256, ( #93 ) ) ;
#56 = CARTESIAN_POINT ( 'NONE',  ( 0.0000000000000000000, 0.8249999999999999556, -0.01250000000000000069 ) ) ;
#57 = FACE_OUTER_BOUND ( 'NONE', #120, .T. ) ;
#58 = DATE_AND_TIME ( #251, #115 ) ;
#59 = LINE ( 'NONE', #334, #325 ) ;
#60 = PLANE ( 'NONE',  #21 ) ;
#61 = VERTEX_POINT ( 'NONE', #53 ) ;
#62 = AXIS2_PLACEMENT_3D ( 'NONE', #340, #200, #87 ) ;
#63 = EDGE_CURVE ( 'NONE', #355, #296, #59, .T. ) ;
#64 = DIRECTION ( 'NONE',  ( 0.0000000000000000000, 0.0000000000000000000, 1.000000000000000000 ) ) ;
#65 = VERTEX_POINT ( 'NONE', #146 ) ;
#66 = CARTESIAN_POINT ( 'NONE',  ( 0.6250000000000000000, -1.000000000000000000, 0.0000000000000000000 ) ) ;
#67 = VERTEX_POINT ( 'NONE', #308 ) ;
#68 = VECTOR ( 'NONE', #6, 1000.000000000000000 ) ;
#69 =( NAMED_UNIT ( * ) SI_UNIT ( $, .STERADIAN. ) SOLID_ANGLE_UNIT ( ) );
#70 = ORIENTED_EDGE ( 'NONE', *, *, #99, .T. ) ;
#71 = CARTESIAN_POINT ( 'NONE',  ( 0.0000000000000000000, -1.000000000000000000, -0.01250000000000000069 ) ) ;
#72 = ORIENTED_EDGE ( 'NONE', *, *, #99, .F. ) ;
#73 = ORIENTED_EDGE ( 'NONE', *, *, #309, .F. ) ;
#74 = AXIS2_PLACEMENT_3D ( 'NONE', #56, #25, #144 ) ;
#75 = EDGE_CURVE ( 'NONE', #296, #156, #362, .T. ) ;
#76 = DIRECTION ( 'NONE',  ( 1.000000000000000000, 0.0000000000000000000, 0.0000000000000000000 ) ) ;
#77 = DIRECTION ( 'NONE',  ( 0.0000000000000000000, 0.0000000000000000000, 1.000000000000000000 ) ) ;
#78 = DATE_AND_TIME ( #108, #45 ) ;
#79 = LINE ( 'NONE', #203, #315 ) ;
#80 = PRODUCT_DEFINITION_FORMATION_WITH_SPECIFIED_SOURCE ( 'ANY', '', #254, .NOT_KNOWN. ) ;
#81 = PERSON_AND_ORGANIZATION ( #291, #125 ) ;
#82 = PLANE ( 'NONE',  #62 ) ;
#83 = EDGE_CURVE ( 'NONE', #67, #269, #336, .T. ) ;
#84 = PERSON_AND_ORGANIZATION_ROLE ( 'classification_officer' ) ;
#85 = DIRECTION ( 'NONE',  ( 0.0000000000000000000, 1.000000000000000000, 0.0000000000000000000 ) ) ;
#86 = VERTEX_POINT ( 'NONE', #23 ) ;
#87 = DIRECTION ( 'NONE',  ( 0.0000000000000000000, 0.0000000000000000000, -1.000000000000000000 ) ) ;
#88 = APPROVAL_PERSON_ORGANIZATION ( #112, #52, #245 ) ;
#89 = VECTOR ( 'NONE', #369, 1000.000000000000000 ) ;
#90 = DIRECTION ( 'NONE',  ( 0.0000000000000000000, 1.000000000000000000, 0.0000000000000000000 ) ) ;
#91 = DIRECTION ( 'NONE',  ( -1.000000000000000000, 0.0000000000000000000, 0.0000000000000000000 ) ) ;
#92 = CARTESIAN_POINT ( 'NONE',  ( 0.0000000000000000000, 1.000000000000000000, -0.01250000000000000069 ) ) ;
#93 = SECURITY_CLASSIFICATION ( '', '', #226 ) ;
#94 = CARTESIAN_POINT ( 'NONE',  ( -0.6250000000000000000, 0.0000000000000000000, 0.2400000000000000189 ) ) ;
#95 = LINE ( 'NONE', #66, #358 ) ;
#96 = ORIENTED_EDGE ( 'NONE', *, *, #83, .T. ) ;
#97 = LINE ( 'NONE', #323, #155 ) ;
#98 = VERTEX_POINT ( 'NONE', #250 ) ;
#99 = EDGE_CURVE ( 'NONE', #136, #164, #175, .T. ) ;
#100 = CARTESIAN_POINT ( 'NONE',  ( 0.0000000000000000000, 0.6500000000000000222, 0.05000000000000000278 ) ) ;
#101 = ORIENTED_EDGE ( 'NONE', *, *, #346, .T. ) ;
#102 = VECTOR ( 'NONE', #295, 1000.000000000000000 ) ;
#103 = CARTESIAN_POINT ( 'NONE',  ( 0.0000000000000000000, -0.8249999999999999556, -0.01250000000000000069 ) ) ;
#104 = ORIENTED_EDGE ( 'NONE', *, *, #290, .T. ) ;
#105 = CARTESIAN_POINT ( 'NONE',  ( -0.6250000000000000000, 1.000000000000000000, -0.01250000000000000069 ) ) ;
#106 = ORIENTED_EDGE ( 'NONE', *, *, #290, .F. ) ;
#107 = EDGE_CURVE ( 'NONE', #296, #61, #257, .T. ) ;
#108 = CALENDAR_DATE ( 2019, 13, 11 ) ;
#109 = PLANE ( 'NONE',  #191 ) ;
#110 = VECTOR ( 'NONE', #348, 1000.000000000000000 ) ;
#111 = DIRECTION ( 'NONE',  ( 0.0000000000000000000, 0.0000000000000000000, 1.000000000000000000 ) ) ;
#112 = PERSON_AND_ORGANIZATION ( #291, #125 ) ;
#113 = PLANE ( 'NONE',  #74 ) ;
#114 = APPROVAL_STATUS ( 'not_yet_approved' ) ;
#115 = LOCAL_TIME ( 18, 17, 39.00000000000000000, #140 ) ;
#116 = EDGE_CURVE ( 'NONE', #61, #136, #79, .T. ) ;
#117 = LINE ( 'NONE', #224, #177 ) ;
#118 = AXIS2_PLACEMENT_3D ( 'NONE', #284, #278, #194 ) ;
#119 = CARTESIAN_POINT ( 'NONE',  ( 0.0000000000000000000, 0.6500000000000000222, -0.01250000000000000069 ) ) ;
#120 = EDGE_LOOP ( 'NONE', ( #131, #297, #101, #183 ) ) ;
#121 = CC_DESIGN_PERSON_AND_ORGANIZATION_ASSIGNMENT ( #81, #174, ( #80 ) ) ;
#122 = FACE_OUTER_BOUND ( 'NONE', #43, .T. ) ;
#123 = CARTESIAN_POINT ( 'NONE',  ( -0.6250000000000000000, 1.000000000000000000, 0.2400000000000000189 ) ) ;
#124 = LINE ( 'NONE', #180, #89 ) ;
#125 = ORGANIZATION ( 'UNSPECIFIED', 'UNSPECIFIED', '' ) ;
#126 = DIRECTION ( 'NONE',  ( 0.0000000000000000000, 0.0000000000000000000, 1.000000000000000000 ) ) ;
#127 = VECTOR ( 'NONE', #77, 1000.000000000000000 ) ;
#128 = DIRECTION ( 'NONE',  ( 0.0000000000000000000, 0.0000000000000000000, -1.000000000000000000 ) ) ;
#129 = ORIENTED_EDGE ( 'NONE', *, *, #360, .F. ) ;
#130 =( NAMED_UNIT ( * ) PLANE_ANGLE_UNIT ( ) SI_UNIT ( $, .RADIAN. ) );
#131 = ORIENTED_EDGE ( 'NONE', *, *, #63, .T. ) ;
#132 = CC_DESIGN_APPROVAL ( #52, ( #80 ) ) ;
#133 = CARTESIAN_POINT ( 'NONE',  ( 0.6250000000000000000, 0.0000000000000000000, 0.2400000000000000189 ) ) ;
#134 = ORIENTED_EDGE ( 'NONE', *, *, #116, .F. ) ;
#135 = DIRECTION ( 'NONE',  ( 0.0000000000000000000, 0.0000000000000000000, 1.000000000000000000 ) ) ;
#136 = VERTEX_POINT ( 'NONE', #307 ) ;
#137 = ORIENTED_EDGE ( 'NONE', *, *, #4, .T. ) ;
#138 = APPROVAL_DATE_TIME ( #356, #52 ) ;
#139 = LINE ( 'NONE', #229, #344 ) ;
#140 = COORDINATED_UNIVERSAL_TIME_OFFSET ( 9, 0, .AHEAD. ) ;
#141 = LINE ( 'NONE', #28, #30 ) ;
#142 = CC_DESIGN_PERSON_AND_ORGANIZATION_ASSIGNMENT ( #199, #84, ( #93 ) ) ;
#143 = PERSON_AND_ORGANIZATION ( #291, #125 ) ;
#144 = DIRECTION ( 'NONE',  ( -1.000000000000000000, 0.0000000000000000000, 0.0000000000000000000 ) ) ;
#145 = PRODUCT_DEFINITION_SHAPE ( 'NONE', 'NONE',  #368 ) ;
#146 = CARTESIAN_POINT ( 'NONE',  ( 0.6250000000000000000, -0.6500000000000000222, -0.01250000000000000069 ) ) ;
#147 = FACE_OUTER_BOUND ( 'NONE', #204, .T. ) ;
#148 = ADVANCED_FACE ( 'NONE', ( #57 ), #113, .T. ) ;
#149 = ORIENTED_EDGE ( 'NONE', *, *, #63, .F. ) ;
#150 = UNCERTAINTY_MEASURE_WITH_UNIT (LENGTH_MEASURE( 1.000000000000000082E-05 ), #320, 'distance_accuracy_value', 'NONE');
#151 = ADVANCED_FACE ( 'NONE', ( #232 ), #82, .T. ) ;
#152 = DIRECTION ( 'NONE',  ( -1.000000000000000000, 0.0000000000000000000, 0.0000000000000000000 ) ) ;
#153 = LINE ( 'NONE', #184, #258 ) ;
#154 = LINE ( 'NONE', #162, #294 ) ;
#155 = VECTOR ( 'NONE', #41, 1000.000000000000000 ) ;
#156 = VERTEX_POINT ( 'NONE', #318 ) ;
#157 = PRODUCT_RELATED_PRODUCT_CATEGORY ( 'detail', '', ( #254 ) ) ;
#158 = DIRECTION ( 'NONE',  ( 0.0000000000000000000, -1.000000000000000000, 0.0000000000000000000 ) ) ;
#159 = ORIENTED_EDGE ( 'NONE', *, *, #179, .F. ) ;
#160 = DIRECTION ( 'NONE',  ( -1.000000000000000000, 0.0000000000000000000, 0.0000000000000000000 ) ) ;
#161 = VERTEX_POINT ( 'NONE', #123 ) ;
#162 = CARTESIAN_POINT ( 'NONE',  ( 0.6250000000000000000, -0.6500000000000000222, 0.0000000000000000000 ) ) ;
#163 = AXIS2_PLACEMENT_3D ( 'NONE', #316, #34, #64 ) ;
#164 = VERTEX_POINT ( 'NONE', #345 ) ;
#165 = COORDINATED_UNIVERSAL_TIME_OFFSET ( 9, 0, .AHEAD. ) ;
#166 = ORIENTED_EDGE ( 'NONE', *, *, #288, .F. ) ;
#167 = DIRECTION ( 'NONE',  ( 0.0000000000000000000, -1.000000000000000000, 0.0000000000000000000 ) ) ;
#168 = LOCAL_TIME ( 18, 17, 39.00000000000000000, #306 ) ;
#169 = PERSON_AND_ORGANIZATION ( #291, #125 ) ;
#170 = DIRECTION ( 'NONE',  ( 0.0000000000000000000, 0.0000000000000000000, 1.000000000000000000 ) ) ;
#171 = EDGE_CURVE ( 'NONE', #86, #351, #205, .T. ) ;
#172 = DIRECTION ( 'NONE',  ( 0.0000000000000000000, 0.0000000000000000000, 1.000000000000000000 ) ) ;
#173 = CARTESIAN_POINT ( 'NONE',  ( -0.6250000000000000000, -0.8249999999999999556, 0.0000000000000000000 ) ) ;
#174 = PERSON_AND_ORGANIZATION_ROLE ( 'design_supplier' ) ;
#175 = LINE ( 'NONE', #367, #238 ) ;
#176 = DIRECTION ( 'NONE',  ( 0.0000000000000000000, -1.000000000000000000, 0.0000000000000000000 ) ) ;
#177 = VECTOR ( 'NONE', #359, 1000.000000000000000 ) ;
#178 = CARTESIAN_POINT ( 'NONE',  ( 0.0000000000000000000, 0.0000000000000000000, 0.05000000000000000278 ) ) ;
#179 = EDGE_CURVE ( 'NONE', #351, #161, #2, .T. ) ;
#180 = CARTESIAN_POINT ( 'NONE',  ( -0.6250000000000000000, -0.6500000000000000222, 0.0000000000000000000 ) ) ;
#181 = CC_DESIGN_PERSON_AND_ORGANIZATION_ASSIGNMENT ( #361, #193, ( #368 ) ) ;
#182 = LINE ( 'NONE', #326, #332 ) ;
#183 = ORIENTED_EDGE ( 'NONE', *, *, #220, .T. ) ;
#184 = CARTESIAN_POINT ( 'NONE',  ( 0.6250000000000000000, 0.0000000000000000000, 0.05000000000000000278 ) ) ;
#185 = ORIENTED_EDGE ( 'NONE', *, *, #225, .F. ) ;
#186 = CARTESIAN_POINT ( 'NONE',  ( 0.6250000000000000000, -0.8249999999999999556, -0.01250000000000000069 ) ) ;
#187 = ORIENTED_EDGE ( 'NONE', *, *, #75, .T. ) ;
#188 = DIRECTION ( 'NONE',  ( 0.0000000000000000000, 1.000000000000000000, 0.0000000000000000000 ) ) ;
#189 = ORIENTED_EDGE ( 'NONE', *, *, #83, .F. ) ;
#190 = CC_DESIGN_APPROVAL ( #201, ( #368 ) ) ;
#191 = AXIS2_PLACEMENT_3D ( 'NONE', #227, #167, #285 ) ;
#192 = ORIENTED_EDGE ( 'NONE', *, *, #360, .T. ) ;
#193 = PERSON_AND_ORGANIZATION_ROLE ( 'creator' ) ;
#194 = DIRECTION ( 'NONE',  ( 0.0000000000000000000, 0.0000000000000000000, -1.000000000000000000 ) ) ;
#195 = PERSON_AND_ORGANIZATION ( #291, #125 ) ;
#196 = ADVANCED_FACE ( 'NONE', ( #122 ), #261, .T. ) ;
#197 = DIRECTION ( 'NONE',  ( 0.0000000000000000000, 0.0000000000000000000, 1.000000000000000000 ) ) ;
#198 = DIRECTION ( 'NONE',  ( 0.0000000000000000000, -1.000000000000000000, 0.0000000000000000000 ) ) ;
#199 = PERSON_AND_ORGANIZATION ( #291, #125 ) ;
#200 = DIRECTION ( 'NONE',  ( 0.0000000000000000000, -1.000000000000000000, 0.0000000000000000000 ) ) ;
#201 = APPROVAL ( #255, 'UNSPECIFIED' ) ;
#202 = APPLICATION_PROTOCOL_DEFINITION ( 'international standard', 'config_control_design', 1994, #42 ) ;
#203 = CARTESIAN_POINT ( 'NONE',  ( -0.6250000000000000000, 0.6500000000000000222, 0.0000000000000000000 ) ) ;
#204 = EDGE_LOOP ( 'NONE', ( #276, #40, #50, #192, #299, #38, #149, #104 ) ) ;
#205 = LINE ( 'NONE', #35, #48 ) ;
#206 = VECTOR ( 'NONE', #158, 1000.000000000000000 ) ;
#207 = DIRECTION ( 'NONE',  ( 1.000000000000000000, 0.0000000000000000000, 0.0000000000000000000 ) ) ;
#208 = ADVANCED_FACE ( 'NONE', ( #236 ), #265, .T. ) ;
#209 = AXIS2_PLACEMENT_3D ( 'NONE', #103, #128, #302 ) ;
#210 = ADVANCED_FACE ( 'NONE', ( #289 ), #259, .T. ) ;
#211 = ORIENTED_EDGE ( 'NONE', *, *, #171, .T. ) ;
#212 = CARTESIAN_POINT ( 'NONE',  ( -0.6250000000000000000, -1.000000000000000000, -0.01250000000000000069 ) ) ;
#213 = ORIENTED_EDGE ( 'NONE', *, *, #225, .T. ) ;
#214 = APPROVAL_PERSON_ORGANIZATION ( #195, #256, #22 ) ;
#215 = LINE ( 'NONE', #71, #223 ) ;
#216 =( GEOMETRIC_REPRESENTATION_CONTEXT ( 3 ) GLOBAL_UNCERTAINTY_ASSIGNED_CONTEXT ( ( #150 ) ) GLOBAL_UNIT_ASSIGNED_CONTEXT ( ( #320, #130, #69 ) ) REPRESENTATION_CONTEXT ( 'NONE', 'WORKASPACE' ) );
#217 = ORIENTED_EDGE ( 'NONE', *, *, #247, .F. ) ;
#218 = FACE_OUTER_BOUND ( 'NONE', #241, .T. ) ;
#219 = EDGE_LOOP ( 'NONE', ( #272, #243, #18, #274, #324, #70, #185, #96 ) ) ;
#220 = EDGE_CURVE ( 'NONE', #240, #355, #263, .T. ) ;
#221 = EDGE_LOOP ( 'NONE', ( #354, #137, #106, #260 ) ) ;
#222 = PERSON_AND_ORGANIZATION_ROLE ( 'design_owner' ) ;
#223 = VECTOR ( 'NONE', #16, 1000.000000000000000 ) ;
#224 = CARTESIAN_POINT ( 'NONE',  ( 0.0000000000000000000, -0.6500000000000000222, 0.05000000000000000278 ) ) ;
#225 = EDGE_CURVE ( 'NONE', #67, #164, #124, .T. ) ;
#226 = SECURITY_CLASSIFICATION_LEVEL ( 'unclassified' ) ;
#227 = CARTESIAN_POINT ( 'NONE',  ( 0.0000000000000000000, 0.6500000000000000222, 0.0000000000000000000 ) ) ;
#228 = SHAPE_DEFINITION_REPRESENTATION ( #145, #7 ) ;
#229 = CARTESIAN_POINT ( 'NONE',  ( 0.0000000000000000000, 1.000000000000000000, 0.2400000000000000189 ) ) ;
#230 = CC_DESIGN_SECURITY_CLASSIFICATION ( #93, ( #80 ) ) ;
#231 = DATE_AND_TIME ( #339, #237 ) ;
#232 = FACE_OUTER_BOUND ( 'NONE', #352, .T. ) ;
#233 = APPROVAL_DATE_TIME ( #58, #256 ) ;
#234 = DIRECTION ( 'NONE',  ( -1.000000000000000000, 0.0000000000000000000, 0.0000000000000000000 ) ) ;
#235 = APPROVAL_PERSON_ORGANIZATION ( #169, #201, #277 ) ;
#236 = FACE_OUTER_BOUND ( 'NONE', #244, .T. ) ;
#237 = LOCAL_TIME ( 18, 17, 39.00000000000000000, #333 ) ;
#238 = VECTOR ( 'NONE', #282, 1000.000000000000000 ) ;
#239 = CARTESIAN_POINT ( 'NONE',  ( 0.6250000000000000000, 1.000000000000000000, -0.01250000000000000069 ) ) ;
#240 = VERTEX_POINT ( 'NONE', #105 ) ;
#241 = EDGE_LOOP ( 'NONE', ( #9, #303, #189, #342 ) ) ;
#242 = LINE ( 'NONE', #353, #102 ) ;
#243 = ORIENTED_EDGE ( 'NONE', *, *, #179, .T. ) ;
#244 = EDGE_LOOP ( 'NONE', ( #331, #217, #14, #159 ) ) ;
#245 = APPROVAL_ROLE ( '' ) ;
#246 = ORIENTED_EDGE ( 'NONE', *, *, #44, .F. ) ;
#247 = EDGE_CURVE ( 'NONE', #327, #86, #350, .T. ) ;
#248 = CALENDAR_DATE ( 2019, 13, 11 ) ;
#249 = VECTOR ( 'NONE', #234, 1000.000000000000000 ) ;
#250 = CARTESIAN_POINT ( 'NONE',  ( 0.6250000000000000000, -1.000000000000000000, -0.01250000000000000069 ) ) ;
#251 = CALENDAR_DATE ( 2019, 13, 11 ) ;
#252 = DIRECTION ( 'NONE',  ( -1.000000000000000000, 0.0000000000000000000, 0.0000000000000000000 ) ) ;
#253 = ORIENTED_EDGE ( 'NONE', *, *, #44, .T. ) ;
#254 = PRODUCT ( 'TLRH2A100mƒ¶', 'TLRH2A100mƒ¶', '', ( #51 ) ) ;
#255 = APPROVAL_STATUS ( 'not_yet_approved' ) ;
#256 = APPROVAL ( #279, 'UNSPECIFIED' ) ;
#257 = LINE ( 'NONE', #119, #249 ) ;
#258 = VECTOR ( 'NONE', #266, 1000.000000000000000 ) ;
#259 = PLANE ( 'NONE',  #163 ) ;
#260 = ORIENTED_EDGE ( 'NONE', *, *, #220, .F. ) ;
#261 = PLANE ( 'NONE',  #273 ) ;
#262 = CC_DESIGN_PERSON_AND_ORGANIZATION_ASSIGNMENT ( #143, #222, ( #254 ) ) ;
#263 = LINE ( 'NONE', #92, #68 ) ;
#264 = CC_DESIGN_DATE_AND_TIME_ASSIGNMENT ( #78, #310, ( #93 ) ) ;
#265 = PLANE ( 'NONE',  #286 ) ;
#266 = DIRECTION ( 'NONE',  ( 0.0000000000000000000, 1.000000000000000000, 0.0000000000000000000 ) ) ;
#267 = VECTOR ( 'NONE', #188, 1000.000000000000000 ) ;
#268 = ORIENTED_EDGE ( 'NONE', *, *, #349, .T. ) ;
#269 = VERTEX_POINT ( 'NONE', #212 ) ;
#270 = ADVANCED_FACE ( 'NONE', ( #218 ), #271, .T. ) ;
#271 = PLANE ( 'NONE',  #209 ) ;
#272 = ORIENTED_EDGE ( 'NONE', *, *, #309, .T. ) ;
#273 = AXIS2_PLACEMENT_3D ( 'NONE', #178, #317, #152 ) ;
#274 = ORIENTED_EDGE ( 'NONE', *, *, #346, .F. ) ;
#275 = CARTESIAN_POINT ( 'NONE',  ( 0.0000000000000000000, 0.0000000000000000000, 0.0000000000000000000 ) ) ;
#276 = ORIENTED_EDGE ( 'NONE', *, *, #247, .T. ) ;
#277 = APPROVAL_ROLE ( '' ) ;
#278 = DIRECTION ( 'NONE',  ( 1.000000000000000000, 0.0000000000000000000, 0.0000000000000000000 ) ) ;
#279 = APPROVAL_STATUS ( 'not_yet_approved' ) ;
#280 = VECTOR ( 'NONE', #160, 1000.000000000000000 ) ;
#281 = FACE_OUTER_BOUND ( 'NONE', #219, .T. ) ;
#282 = DIRECTION ( 'NONE',  ( 0.0000000000000000000, -1.000000000000000000, 0.0000000000000000000 ) ) ;
#283 = EDGE_CURVE ( 'NONE', #240, #161, #39, .T. ) ;
#284 = CARTESIAN_POINT ( 'NONE',  ( 0.6250000000000000000, -0.8249999999999999556, 0.0000000000000000000 ) ) ;
#285 = DIRECTION ( 'NONE',  ( 0.0000000000000000000, 0.0000000000000000000, -1.000000000000000000 ) ) ;
#286 = AXIS2_PLACEMENT_3D ( 'NONE', #343, #32, #207 ) ;
#287 = ORIENTED_EDGE ( 'NONE', *, *, #313, .F. ) ;
#288 = EDGE_CURVE ( 'NONE', #329, #156, #153, .T. ) ;
#289 = FACE_OUTER_BOUND ( 'NONE', #221, .T. ) ;
#290 = EDGE_CURVE ( 'NONE', #355, #327, #182, .T. ) ;
#291 = PERSON ( 'UNSPECIFIED', 'UNSPECIFIED', 'UNSPECIFIED', ('UNSPECIFIED'), ('UNSPECIFIED'), ('UNSPECIFIED') ) ;
#292 = LINE ( 'NONE', #100, #280 ) ;
#293 = EDGE_LOOP ( 'NONE', ( #321, #134, #11, #187 ) ) ;
#294 = VECTOR ( 'NONE', #135, 1000.000000000000000 ) ;
#295 = DIRECTION ( 'NONE',  ( 0.0000000000000000000, 0.0000000000000000000, 1.000000000000000000 ) ) ;
#296 = VERTEX_POINT ( 'NONE', #328 ) ;
#297 = ORIENTED_EDGE ( 'NONE', *, *, #107, .T. ) ;
#298 = DIRECTION ( 'NONE',  ( 0.0000000000000000000, 0.0000000000000000000, 1.000000000000000000 ) ) ;
#299 = ORIENTED_EDGE ( 'NONE', *, *, #288, .T. ) ;
#300 = CC_DESIGN_PERSON_AND_ORGANIZATION_ASSIGNMENT ( #27, #54, ( #80 ) ) ;
#301 = VECTOR ( 'NONE', #198, 1000.000000000000000 ) ;
#302 = DIRECTION ( 'NONE',  ( -1.000000000000000000, 0.0000000000000000000, 0.0000000000000000000 ) ) ;
#303 = ORIENTED_EDGE ( 'NONE', *, *, #319, .F. ) ;
#304 = DATE_TIME_ROLE ( 'creation_date' ) ;
#305 = CARTESIAN_POINT ( 'NONE',  ( 0.0000000000000000000, -0.6500000000000000222, 0.0000000000000000000 ) ) ;
#306 = COORDINATED_UNIVERSAL_TIME_OFFSET ( 9, 0, .AHEAD. ) ;
#307 = CARTESIAN_POINT ( 'NONE',  ( -0.6250000000000000000, 0.6500000000000000222, 0.05000000000000000278 ) ) ;
#308 = CARTESIAN_POINT ( 'NONE',  ( -0.6250000000000000000, -0.6500000000000000222, -0.01250000000000000069 ) ) ;
#309 = EDGE_CURVE ( 'NONE', #269, #351, #242, .T. ) ;
#310 = DATE_TIME_ROLE ( 'classification_date' ) ;
#311 = PLANE ( 'NONE',  #347 ) ;
#312 = DIRECTION ( 'NONE',  ( -1.000000000000000000, 0.0000000000000000000, 0.0000000000000000000 ) ) ;
#313 = EDGE_CURVE ( 'NONE', #156, #136, #292, .T. ) ;
#314 = ORIENTED_EDGE ( 'NONE', *, *, #33, .T. ) ;
#315 = VECTOR ( 'NONE', #197, 1000.000000000000000 ) ;
#316 = CARTESIAN_POINT ( 'NONE',  ( 0.0000000000000000000, 1.000000000000000000, 0.0000000000000000000 ) ) ;
#317 = DIRECTION ( 'NONE',  ( 0.0000000000000000000, 0.0000000000000000000, -1.000000000000000000 ) ) ;
#318 = CARTESIAN_POINT ( 'NONE',  ( 0.6250000000000000000, 0.6500000000000000222, 0.05000000000000000278 ) ) ;
#319 = EDGE_CURVE ( 'NONE', #269, #98, #215, .T. ) ;
#320 =( LENGTH_UNIT ( ) NAMED_UNIT ( * ) SI_UNIT ( .MILLI., .METRE. ) );
#321 = ORIENTED_EDGE ( 'NONE', *, *, #313, .T. ) ;
#322 = CC_DESIGN_DATE_AND_TIME_ASSIGNMENT ( #24, #304, ( #368 ) ) ;
#323 = CARTESIAN_POINT ( 'NONE',  ( -0.6250000000000000000, 0.8249999999999999556, -0.01250000000000000069 ) ) ;
#324 = ORIENTED_EDGE ( 'NONE', *, *, #116, .T. ) ;
#325 = VECTOR ( 'NONE', #176, 1000.000000000000000 ) ;
#326 = CARTESIAN_POINT ( 'NONE',  ( 0.6250000000000000000, 1.000000000000000000, 0.0000000000000000000 ) ) ;
#327 = VERTEX_POINT ( 'NONE', #13 ) ;
#328 = CARTESIAN_POINT ( 'NONE',  ( 0.6250000000000000000, 0.6500000000000000222, -0.01250000000000000069 ) ) ;
#329 = VERTEX_POINT ( 'NONE', #37 ) ;
#330 = LINE ( 'NONE', #186, #267 ) ;
#331 = ORIENTED_EDGE ( 'NONE', *, *, #171, .F. ) ;
#332 = VECTOR ( 'NONE', #126, 1000.000000000000000 ) ;
#333 = COORDINATED_UNIVERSAL_TIME_OFFSET ( 9, 0, .AHEAD. ) ;
#334 = CARTESIAN_POINT ( 'NONE',  ( 0.6250000000000000000, 0.8249999999999999556, -0.01250000000000000069 ) ) ;
#335 = COORDINATED_UNIVERSAL_TIME_OFFSET ( 9, 0, .AHEAD. ) ;
#336 = LINE ( 'NONE', #20, #301 ) ;
#337 = EDGE_CURVE ( 'NONE', #98, #65, #330, .T. ) ;
#338 = CARTESIAN_POINT ( 'NONE',  ( 0.6250000000000000000, 0.6500000000000000222, 0.0000000000000000000 ) ) ;
#339 = CALENDAR_DATE ( 2019, 13, 11 ) ;
#340 = CARTESIAN_POINT ( 'NONE',  ( 0.0000000000000000000, -1.000000000000000000, 0.0000000000000000000 ) ) ;
#341 = DIRECTION ( 'NONE',  ( 1.000000000000000000, 0.0000000000000000000, 0.0000000000000000000 ) ) ;
#342 = ORIENTED_EDGE ( 'NONE', *, *, #33, .F. ) ;
#343 = CARTESIAN_POINT ( 'NONE',  ( 0.0000000000000000000, 0.0000000000000000000, 0.2400000000000000189 ) ) ;
#344 = VECTOR ( 'NONE', #341, 1000.000000000000000 ) ;
#345 = CARTESIAN_POINT ( 'NONE',  ( -0.6250000000000000000, -0.6500000000000000222, 0.05000000000000000278 ) ) ;
#346 = EDGE_CURVE ( 'NONE', #61, #240, #97, .T. ) ;
#347 = AXIS2_PLACEMENT_3D ( 'NONE', #173, #312, #170 ) ;
#348 = DIRECTION ( 'NONE',  ( 0.0000000000000000000, 0.0000000000000000000, 1.000000000000000000 ) ) ;
#349 = EDGE_CURVE ( 'NONE', #98, #86, #95, .T. ) ;
#350 = LINE ( 'NONE', #133, #206 ) ;
#351 = VERTEX_POINT ( 'NONE', #46 ) ;
#352 = EDGE_LOOP ( 'NONE', ( #268, #211, #73, #47 ) ) ;
#353 = CARTESIAN_POINT ( 'NONE',  ( -0.6250000000000000000, -1.000000000000000000, 0.0000000000000000000 ) ) ;
#354 = ORIENTED_EDGE ( 'NONE', *, *, #283, .T. ) ;
#355 = VERTEX_POINT ( 'NONE', #239 ) ;
#356 = DATE_AND_TIME ( #19, #1 ) ;
#357 = FACE_OUTER_BOUND ( 'NONE', #17, .T. ) ;
#358 = VECTOR ( 'NONE', #298, 1000.000000000000000 ) ;
#359 = DIRECTION ( 'NONE',  ( 1.000000000000000000, 0.0000000000000000000, 0.0000000000000000000 ) ) ;
#360 = EDGE_CURVE ( 'NONE', #65, #329, #154, .T. ) ;
#361 = PERSON_AND_ORGANIZATION ( #291, #125 ) ;
#362 = LINE ( 'NONE', #338, #127 ) ;
#363 = FACE_OUTER_BOUND ( 'NONE', #293, .T. ) ;
#364 = AXIS2_PLACEMENT_3D ( 'NONE', #275, #172, #76 ) ;
#365 = APPLICATION_PROTOCOL_DEFINITION ( 'international standard', 'config_control_design', 1994, #12 ) ;
#366 = CLOSED_SHELL ( 'NONE', ( #151, #8, #15, #36, #26, #210, #208, #196, #148, #270 ) ) ;
#367 = CARTESIAN_POINT ( 'NONE',  ( -0.6250000000000000000, 0.0000000000000000000, 0.05000000000000000278 ) ) ;
#368 = PRODUCT_DEFINITION ( 'UNKNOWN', '', #80, #5 ) ;
#369 = DIRECTION ( 'NONE',  ( 0.0000000000000000000, 0.0000000000000000000, 1.000000000000000000 ) ) ;
ENDSEC;
END-ISO-10303-21;
