ISO-10303-21;
HEADER;
FILE_DESCRIPTION (( 'STEP AP203' ),
    '1' );
FILE_NAME ('TLRZ1J.STEP',
    '2019-11-13T09:25:57',
    ( '' ),
    ( '' ),
    'SwSTEP 2.0',
    'SolidWorks 2019',
    '' );
FILE_SCHEMA (( 'CONFIG_CONTROL_DESIGN' ));
ENDSEC;

DATA;
#1 = DIRECTION ( 'NONE',  ( -1.000000000000000000, 0.0000000000000000000, 0.0000000000000000000 ) ) ;
#2 = ORIENTED_EDGE ( 'NONE', *, *, #299, .T. ) ;
#3 = EDGE_LOOP ( 'NONE', ( #60, #121, #117, #227 ) ) ;
#4 = DIRECTION ( 'NONE',  ( 1.000000000000000000, 0.0000000000000000000, 0.0000000000000000000 ) ) ;
#5 = ORIENTED_EDGE ( 'NONE', *, *, #259, .T. ) ;
#6 = CC_DESIGN_PERSON_AND_ORGANIZATION_ASSIGNMENT ( #122, #132, ( #187 ) ) ;
#7 = ORIENTED_EDGE ( 'NONE', *, *, #156, .F. ) ;
#8 = DIRECTION ( 'NONE',  ( 1.000000000000000000, 0.0000000000000000000, 0.0000000000000000000 ) ) ;
#9 = CARTESIAN_POINT ( 'NONE',  ( 0.0000000000000000000, 0.6500000000000000222, 0.0000000000000000000 ) ) ;
#10 = CARTESIAN_POINT ( 'NONE',  ( -0.4000000000000000222, 0.8000000000000000444, 0.0000000000000000000 ) ) ;
#11 = PLANE ( 'NONE',  #226 ) ;
#12 = DATE_TIME_ROLE ( 'classification_date' ) ;
#13 = VECTOR ( 'NONE', #75, 1000.000000000000000 ) ;
#14 = ORIENTED_EDGE ( 'NONE', *, *, #27, .F. ) ;
#15 = FACE_OUTER_BOUND ( 'NONE', #313, .T. ) ;
#16 = APPLICATION_PROTOCOL_DEFINITION ( 'international standard', 'config_control_design', 1994, #116 ) ;
#17 = CALENDAR_DATE ( 2019, 13, 11 ) ;
#18 = LINE ( 'NONE', #215, #170 ) ;
#19 = VECTOR ( 'NONE', #120, 1000.000000000000000 ) ;
#20 = EDGE_CURVE ( 'NONE', #81, #35, #166, .T. ) ;
#21 = CARTESIAN_POINT ( 'NONE',  ( 0.4000000000000000222, 0.8000000000000000444, 0.5000000000000000000 ) ) ;
#22 = VECTOR ( 'NONE', #65, 1000.000000000000000 ) ;
#23 = FACE_OUTER_BOUND ( 'NONE', #150, .T. ) ;
#24 = VECTOR ( 'NONE', #346, 1000.000000000000000 ) ;
#25 = EDGE_CURVE ( 'NONE', #296, #314, #262, .T. ) ;
#26 = ORIENTED_EDGE ( 'NONE', *, *, #335, .T. ) ;
#27 = EDGE_CURVE ( 'NONE', #146, #109, #61, .T. ) ;
#28 = CARTESIAN_POINT ( 'NONE',  ( -0.4000000000000000222, 0.5000000000000000000, 0.0000000000000000000 ) ) ;
#29 = ORIENTED_EDGE ( 'NONE', *, *, #231, .F. ) ;
#30 = CARTESIAN_POINT ( 'NONE',  ( -0.4000000000000000222, -0.8000000000000000444, 0.5000000000000000000 ) ) ;
#31 = CARTESIAN_POINT ( 'NONE',  ( 0.4000000000000000222, -0.6500000000000000222, 0.0000000000000000000 ) ) ;
#32 = ORIENTED_EDGE ( 'NONE', *, *, #27, .T. ) ;
#33 = LINE ( 'NONE', #172, #108 ) ;
#34 =( GEOMETRIC_REPRESENTATION_CONTEXT ( 3 ) GLOBAL_UNCERTAINTY_ASSIGNED_CONTEXT ( ( #361 ) ) GLOBAL_UNIT_ASSIGNED_CONTEXT ( ( #202, #269, #99 ) ) REPRESENTATION_CONTEXT ( 'NONE', 'WORKASPACE' ) );
#35 = VERTEX_POINT ( 'NONE', #43 ) ;
#36 = CARTESIAN_POINT ( 'NONE',  ( -0.4000000000000000222, -0.5000000000000000000, 0.0000000000000000000 ) ) ;
#37 = DATE_AND_TIME ( #357, #53 ) ;
#38 = LOCAL_TIME ( 18, 25, 57.00000000000000000, #294 ) ;
#39 = CARTESIAN_POINT ( 'NONE',  ( 0.4000000000000000222, -0.8000000000000000444, 0.0000000000000000000 ) ) ;
#40 = APPLICATION_PROTOCOL_DEFINITION ( 'international standard', 'config_control_design', 1994, #223 ) ;
#41 = CALENDAR_DATE ( 2019, 13, 11 ) ;
#42 = EDGE_CURVE ( 'NONE', #81, #109, #142, .T. ) ;
#43 = CARTESIAN_POINT ( 'NONE',  ( 0.4000000000000000222, -0.5000000000000000000, 0.0000000000000000000 ) ) ;
#44 = APPROVAL_STATUS ( 'not_yet_approved' ) ;
#45 = CLOSED_SHELL ( 'NONE', ( #270, #177, #94, #311, #62, #72, #107, #50, #106, #239 ) ) ;
#46 = ORIENTED_EDGE ( 'NONE', *, *, #84, .T. ) ;
#47 = DATE_AND_TIME ( #297, #220 ) ;
#48 = COORDINATED_UNIVERSAL_TIME_OFFSET ( 9, 0, .AHEAD. ) ;
#49 = DIRECTION ( 'NONE',  ( 0.0000000000000000000, 0.8944271909999156334, 0.4472135954999583718 ) ) ;
#50 = ADVANCED_FACE ( 'NONE', ( #67 ), #148, .T. ) ;
#51 = CARTESIAN_POINT ( 'NONE',  ( -0.4000000000000000222, -0.8000000000000000444, 0.0000000000000000000 ) ) ;
#52 = PLANE ( 'NONE',  #281 ) ;
#53 = LOCAL_TIME ( 18, 25, 57.00000000000000000, #91 ) ;
#54 = DATE_AND_TIME ( #73, #337 ) ;
#55 = EDGE_CURVE ( 'NONE', #230, #35, #119, .T. ) ;
#56 = PLANE ( 'NONE',  #157 ) ;
#57 = VECTOR ( 'NONE', #163, 1000.000000000000000 ) ;
#58 = ORIENTED_EDGE ( 'NONE', *, *, #134, .T. ) ;
#59 = DIRECTION ( 'NONE',  ( 0.0000000000000000000, -1.000000000000000000, 0.0000000000000000000 ) ) ;
#60 = ORIENTED_EDGE ( 'NONE', *, *, #359, .T. ) ;
#61 = LINE ( 'NONE', #241, #82 ) ;
#62 = ADVANCED_FACE ( 'NONE', ( #265 ), #11, .T. ) ;
#63 = CARTESIAN_POINT ( 'NONE',  ( -0.4000000000000000222, 0.8000000000000000444, 0.5000000000000000000 ) ) ;
#64 = ORIENTED_EDGE ( 'NONE', *, *, #206, .T. ) ;
#65 = DIRECTION ( 'NONE',  ( -1.000000000000000000, 0.0000000000000000000, 0.0000000000000000000 ) ) ;
#66 = ORIENTED_EDGE ( 'NONE', *, *, #42, .T. ) ;
#67 = FACE_OUTER_BOUND ( 'NONE', #340, .T. ) ;
#68 = DESIGN_CONTEXT ( 'detailed design', #116, 'design' ) ;
#69 = PERSON_AND_ORGANIZATION ( #192, #95 ) ;
#70 = DATE_AND_TIME ( #41, #38 ) ;
#71 = DIRECTION ( 'NONE',  ( 0.0000000000000000000, 0.0000000000000000000, 1.000000000000000000 ) ) ;
#72 = ADVANCED_FACE ( 'NONE', ( #214 ), #104, .T. ) ;
#73 = CALENDAR_DATE ( 2019, 13, 11 ) ;
#74 = DIRECTION ( 'NONE',  ( -1.000000000000000000, 0.0000000000000000000, 0.0000000000000000000 ) ) ;
#75 = DIRECTION ( 'NONE',  ( 0.0000000000000000000, 0.0000000000000000000, 1.000000000000000000 ) ) ;
#76 = CARTESIAN_POINT ( 'NONE',  ( 0.0000000000000000000, -0.8000000000000000444, 0.0000000000000000000 ) ) ;
#77 = VECTOR ( 'NONE', #92, 1000.000000000000000 ) ;
#78 = CC_DESIGN_DATE_AND_TIME_ASSIGNMENT ( #37, #12, ( #276 ) ) ;
#79 = ORIENTED_EDGE ( 'NONE', *, *, #20, .F. ) ;
#80 = CARTESIAN_POINT ( 'NONE',  ( -0.4000000000000000222, 0.0000000000000000000, 0.2000000000000000111 ) ) ;
#81 = VERTEX_POINT ( 'NONE', #154 ) ;
#82 = VECTOR ( 'NONE', #353, 1000.000000000000000 ) ;
#83 = DIRECTION ( 'NONE',  ( 0.0000000000000000000, -1.000000000000000000, 0.0000000000000000000 ) ) ;
#84 = EDGE_CURVE ( 'NONE', #308, #314, #273, .T. ) ;
#85 = ORIENTED_EDGE ( 'NONE', *, *, #366, .T. ) ;
#86 = PLANE ( 'NONE',  #321 ) ;
#87 = PERSON_AND_ORGANIZATION ( #192, #95 ) ;
#88 = ORIENTED_EDGE ( 'NONE', *, *, #55, .T. ) ;
#89 = ORIENTED_EDGE ( 'NONE', *, *, #162, .T. ) ;
#90 = CARTESIAN_POINT ( 'NONE',  ( -0.4000000000000000222, 0.8000000000000000444, 0.2000000000000000111 ) ) ;
#91 = COORDINATED_UNIVERSAL_TIME_OFFSET ( 9, 0, .AHEAD. ) ;
#92 = DIRECTION ( 'NONE',  ( 0.0000000000000000000, -0.4472135954999579277, -0.8944271909999158554 ) ) ;
#93 = CARTESIAN_POINT ( 'NONE',  ( 0.4000000000000000222, 0.8000000000000000444, 0.0000000000000000000 ) ) ;
#94 = ADVANCED_FACE ( 'NONE', ( #182 ), #52, .T. ) ;
#95 = ORGANIZATION ( 'UNSPECIFIED', 'UNSPECIFIED', '' ) ;
#96 = ORIENTED_EDGE ( 'NONE', *, *, #134, .F. ) ;
#97 = APPROVAL_STATUS ( 'not_yet_approved' ) ;
#98 = DIRECTION ( 'NONE',  ( -1.000000000000000000, 0.0000000000000000000, 0.0000000000000000000 ) ) ;
#99 =( NAMED_UNIT ( * ) SI_UNIT ( $, .STERADIAN. ) SOLID_ANGLE_UNIT ( ) );
#100 = PERSON_AND_ORGANIZATION ( #192, #95 ) ;
#101 = LINE ( 'NONE', #360, #123 ) ;
#102 = DIRECTION ( 'NONE',  ( 0.0000000000000000000, 0.4472135954999583718, -0.8944271909999156334 ) ) ;
#103 = CC_DESIGN_APPROVAL ( #341, ( #145 ) ) ;
#104 = PLANE ( 'NONE',  #290 ) ;
#105 = DIRECTION ( 'NONE',  ( 0.0000000000000000000, 0.0000000000000000000, -1.000000000000000000 ) ) ;
#106 = ADVANCED_FACE ( 'NONE', ( #23 ), #131, .F. ) ;
#107 = ADVANCED_FACE ( 'NONE', ( #212 ), #330, .T. ) ;
#108 = VECTOR ( 'NONE', #282, 1000.000000000000000 ) ;
#109 = VERTEX_POINT ( 'NONE', #153 ) ;
#110 = CARTESIAN_POINT ( 'NONE',  ( 0.4000000000000000222, 0.5000000000000000000, 0.0000000000000000000 ) ) ;
#111 = ORIENTED_EDGE ( 'NONE', *, *, #359, .F. ) ;
#112 = CARTESIAN_POINT ( 'NONE',  ( -0.4000000000000000222, -0.5000000000000000000, 0.0000000000000000000 ) ) ;
#113 = ORIENTED_EDGE ( 'NONE', *, *, #231, .T. ) ;
#114 = ORIENTED_EDGE ( 'NONE', *, *, #219, .F. ) ;
#115 = LINE ( 'NONE', #342, #133 ) ;
#116 = APPLICATION_CONTEXT ( 'configuration controlled 3d designs of mechanical parts and assemblies' ) ;
#117 = ORIENTED_EDGE ( 'NONE', *, *, #162, .F. ) ;
#118 = CARTESIAN_POINT ( 'NONE',  ( 0.0000000000000000000, -0.5000000000000000000, 0.0000000000000000000 ) ) ;
#119 = LINE ( 'NONE', #234, #77 ) ;
#120 = DIRECTION ( 'NONE',  ( 1.000000000000000000, 0.0000000000000000000, 0.0000000000000000000 ) ) ;
#121 = ORIENTED_EDGE ( 'NONE', *, *, #189, .T. ) ;
#122 = PERSON_AND_ORGANIZATION ( #192, #95 ) ;
#123 = VECTOR ( 'NONE', #271, 1000.000000000000000 ) ;
#124 = VECTOR ( 'NONE', #8, 1000.000000000000000 ) ;
#125 = ORIENTED_EDGE ( 'NONE', *, *, #206, .F. ) ;
#126 = PLANE ( 'NONE',  #216 ) ;
#127 = APPROVAL_DATE_TIME ( #47, #244 ) ;
#128 = EDGE_CURVE ( 'NONE', #314, #232, #101, .T. ) ;
#129 = VECTOR ( 'NONE', #246, 1000.000000000000000 ) ;
#130 = LINE ( 'NONE', #76, #161 ) ;
#131 = PLANE ( 'NONE',  #336 ) ;
#132 = PERSON_AND_ORGANIZATION_ROLE ( 'design_owner' ) ;
#133 = VECTOR ( 'NONE', #83, 1000.000000000000000 ) ;
#134 = EDGE_CURVE ( 'NONE', #188, #230, #18, .T. ) ;
#135 = ORIENTED_EDGE ( 'NONE', *, *, #284, .F. ) ;
#136 = LINE ( 'NONE', #118, #155 ) ;
#137 = VERTEX_POINT ( 'NONE', #51 ) ;
#138 = APPROVAL_PERSON_ORGANIZATION ( #69, #244, #356 ) ;
#139 = LINE ( 'NONE', #255, #318 ) ;
#140 = EDGE_LOOP ( 'NONE', ( #201, #96, #256, #355 ) ) ;
#141 = CARTESIAN_POINT ( 'NONE',  ( 0.4000000000000000222, -0.4000000000000000222, 0.2000000000000000111 ) ) ;
#142 = LINE ( 'NONE', #39, #344 ) ;
#143 = CARTESIAN_POINT ( 'NONE',  ( 0.4000000000000000222, 0.0000000000000000000, 0.2000000000000000111 ) ) ;
#144 = EDGE_CURVE ( 'NONE', #207, #349, #272, .T. ) ;
#145 = PRODUCT_DEFINITION_FORMATION_WITH_SPECIFIED_SOURCE ( 'ANY', '', #187, .NOT_KNOWN. ) ;
#146 = VERTEX_POINT ( 'NONE', #21 ) ;
#147 = CARTESIAN_POINT ( 'NONE',  ( -0.4000000000000000222, 0.4000000000000000222, 0.2000000000000000111 ) ) ;
#148 = PLANE ( 'NONE',  #180 ) ;
#149 = APPROVAL_DATE_TIME ( #70, #264 ) ;
#150 = EDGE_LOOP ( 'NONE', ( #225, #114, #221, #174 ) ) ;
#151 = APPROVAL_ROLE ( '' ) ;
#152 = CARTESIAN_POINT ( 'NONE',  ( 0.4000000000000000222, 0.8000000000000000444, 0.2000000000000000111 ) ) ;
#153 = CARTESIAN_POINT ( 'NONE',  ( 0.4000000000000000222, -0.8000000000000000444, 0.5000000000000000000 ) ) ;
#154 = CARTESIAN_POINT ( 'NONE',  ( 0.4000000000000000222, -0.8000000000000000444, 0.0000000000000000000 ) ) ;
#155 = VECTOR ( 'NONE', #1, 1000.000000000000000 ) ;
#156 = EDGE_CURVE ( 'NONE', #137, #81, #130, .T. ) ;
#157 = AXIS2_PLACEMENT_3D ( 'NONE', #31, #4, #159 ) ;
#158 = DATE_TIME_ROLE ( 'creation_date' ) ;
#159 = DIRECTION ( 'NONE',  ( 0.0000000000000000000, 0.0000000000000000000, -1.000000000000000000 ) ) ;
#160 = EDGE_LOOP ( 'NONE', ( #194, #14, #253, #291 ) ) ;
#161 = VECTOR ( 'NONE', #331, 1000.000000000000000 ) ;
#162 = EDGE_CURVE ( 'NONE', #278, #146, #364, .T. ) ;
#163 = DIRECTION ( 'NONE',  ( 0.0000000000000000000, 0.4472135954999579277, -0.8944271909999158554 ) ) ;
#164 = LINE ( 'NONE', #261, #275 ) ;
#165 = EDGE_LOOP ( 'NONE', ( #32, #338, #369, #250, #2, #178, #125, #89 ) ) ;
#166 = LINE ( 'NONE', #176, #24 ) ;
#167 = DIRECTION ( 'NONE',  ( 0.0000000000000000000, -1.000000000000000000, 0.0000000000000000000 ) ) ;
#168 = PERSON_AND_ORGANIZATION_ROLE ( 'classification_officer' ) ;
#169 = CC_DESIGN_PERSON_AND_ORGANIZATION_ASSIGNMENT ( #243, #210, ( #305 ) ) ;
#170 = VECTOR ( 'NONE', #300, 1000.000000000000000 ) ;
#171 = EDGE_LOOP ( 'NONE', ( #88, #113, #310, #58 ) ) ;
#172 = CARTESIAN_POINT ( 'NONE',  ( 0.4000000000000000222, 0.6500000000000000222, 0.0000000000000000000 ) ) ;
#173 = AXIS2_PLACEMENT_3D ( 'NONE', #320, #208, #293 ) ;
#174 = ORIENTED_EDGE ( 'NONE', *, *, #84, .F. ) ;
#175 = COORDINATED_UNIVERSAL_TIME_OFFSET ( 9, 0, .AHEAD. ) ;
#176 = CARTESIAN_POINT ( 'NONE',  ( 0.4000000000000000222, -0.6500000000000000222, 0.0000000000000000000 ) ) ;
#177 = ADVANCED_FACE ( 'NONE', ( #15 ), #126, .T. ) ;
#178 = ORIENTED_EDGE ( 'NONE', *, *, #195, .T. ) ;
#179 = PERSON_AND_ORGANIZATION_ROLE ( 'creator' ) ;
#180 = AXIS2_PLACEMENT_3D ( 'NONE', #9, #322, #316 ) ;
#181 = CARTESIAN_POINT ( 'NONE',  ( 0.0000000000000000000, -0.6500000000000000222, 0.0000000000000000000 ) ) ;
#182 = FACE_OUTER_BOUND ( 'NONE', #196, .T. ) ;
#183 = DIRECTION ( 'NONE',  ( 1.000000000000000000, 0.0000000000000000000, 0.0000000000000000000 ) ) ;
#184 = MANIFOLD_SOLID_BREP ( '²ÝÎß°Ä1', #45 ) ;
#185 = CC_DESIGN_DATE_AND_TIME_ASSIGNMENT ( #54, #158, ( #305 ) ) ;
#186 = APPROVAL_PERSON_ORGANIZATION ( #352, #264, #229 ) ;
#187 = PRODUCT ( 'TLRZ1J', 'TLRZ1J', '', ( #325 ) ) ;
#188 = VERTEX_POINT ( 'NONE', #368 ) ;
#189 = EDGE_CURVE ( 'NONE', #349, #146, #222, .T. ) ;
#190 = CARTESIAN_POINT ( 'NONE',  ( 0.4000000000000000222, 0.5000000000000000000, 0.0000000000000000000 ) ) ;
#191 = ORIENTED_EDGE ( 'NONE', *, *, #128, .T. ) ;
#192 = PERSON ( 'UNSPECIFIED', 'UNSPECIFIED', 'UNSPECIFIED', ('UNSPECIFIED'), ('UNSPECIFIED'), ('UNSPECIFIED') ) ;
#193 = DIRECTION ( 'NONE',  ( 0.0000000000000000000, 1.000000000000000000, 0.0000000000000000000 ) ) ;
#194 = ORIENTED_EDGE ( 'NONE', *, *, #332, .F. ) ;
#195 = EDGE_CURVE ( 'NONE', #343, #308, #252, .T. ) ;
#196 = EDGE_LOOP ( 'NONE', ( #79, #7, #135, #29 ) ) ;
#197 = CARTESIAN_POINT ( 'NONE',  ( 0.0000000000000000000, 0.8000000000000000444, 0.5000000000000000000 ) ) ;
#198 = ORIENTED_EDGE ( 'NONE', *, *, #144, .T. ) ;
#199 = DIRECTION ( 'NONE',  ( 0.0000000000000000000, 0.0000000000000000000, 1.000000000000000000 ) ) ;
#200 = SHAPE_DEFINITION_REPRESENTATION ( #218, #367 ) ;
#201 = ORIENTED_EDGE ( 'NONE', *, *, #299, .F. ) ;
#202 =( LENGTH_UNIT ( ) NAMED_UNIT ( * ) SI_UNIT ( .MILLI., .METRE. ) );
#203 = VECTOR ( 'NONE', #267, 1000.000000000000000 ) ;
#204 = EDGE_LOOP ( 'NONE', ( #66, #319, #324, #292 ) ) ;
#205 = LINE ( 'NONE', #304, #203 ) ;
#206 = EDGE_CURVE ( 'NONE', #278, #308, #33, .T. ) ;
#207 = VERTEX_POINT ( 'NONE', #30 ) ;
#208 = DIRECTION ( 'NONE',  ( 0.0000000000000000000, 0.0000000000000000000, 1.000000000000000000 ) ) ;
#209 = CARTESIAN_POINT ( 'NONE',  ( -0.4000000000000000222, -0.6500000000000000222, 0.0000000000000000000 ) ) ;
#210 = PERSON_AND_ORGANIZATION_ROLE ( 'creator' ) ;
#211 = AXIS2_PLACEMENT_3D ( 'NONE', #354, #59, #288 ) ;
#212 = FACE_OUTER_BOUND ( 'NONE', #3, .T. ) ;
#213 = CC_DESIGN_PERSON_AND_ORGANIZATION_ASSIGNMENT ( #100, #168, ( #276 ) ) ;
#214 = FACE_OUTER_BOUND ( 'NONE', #160, .T. ) ;
#215 = CARTESIAN_POINT ( 'NONE',  ( -0.4000000000000000222, -0.4000000000000000222, 0.2000000000000000111 ) ) ;
#216 = AXIS2_PLACEMENT_3D ( 'NONE', #209, #328, #71 ) ;
#217 = PRODUCT_RELATED_PRODUCT_CATEGORY ( 'detail', '', ( #187 ) ) ;
#218 = PRODUCT_DEFINITION_SHAPE ( 'NONE', 'NONE',  #305 ) ;
#219 = EDGE_CURVE ( 'NONE', #296, #343, #139, .T. ) ;
#220 = LOCAL_TIME ( 18, 25, 57.00000000000000000, #175 ) ;
#221 = ORIENTED_EDGE ( 'NONE', *, *, #25, .T. ) ;
#222 = LINE ( 'NONE', #197, #19 ) ;
#223 = APPLICATION_CONTEXT ( 'configuration controlled 3d designs of mechanical parts and assemblies' ) ;
#224 = DIRECTION ( 'NONE',  ( 0.0000000000000000000, -0.4472135954999583718, -0.8944271909999156334 ) ) ;
#225 = ORIENTED_EDGE ( 'NONE', *, *, #195, .F. ) ;
#226 = AXIS2_PLACEMENT_3D ( 'NONE', #295, #266, #98 ) ;
#227 = ORIENTED_EDGE ( 'NONE', *, *, #335, .F. ) ;
#228 = CARTESIAN_POINT ( 'NONE',  ( 0.0000000000000000000, 0.8000000000000000444, 0.0000000000000000000 ) ) ;
#229 = APPROVAL_ROLE ( '' ) ;
#230 = VERTEX_POINT ( 'NONE', #141 ) ;
#231 = EDGE_CURVE ( 'NONE', #35, #237, #136, .T. ) ;
#232 = VERTEX_POINT ( 'NONE', #10 ) ;
#233 = LINE ( 'NONE', #90, #251 ) ;
#234 = CARTESIAN_POINT ( 'NONE',  ( 0.4000000000000000222, -0.5000000000000000000, 0.0000000000000000000 ) ) ;
#235 = FACE_OUTER_BOUND ( 'NONE', #204, .T. ) ;
#236 = PERSON_AND_ORGANIZATION ( #192, #95 ) ;
#237 = VERTEX_POINT ( 'NONE', #112 ) ;
#238 = APPROVAL_STATUS ( 'not_yet_approved' ) ;
#239 = ADVANCED_FACE ( 'NONE', ( #339 ), #86, .F. ) ;
#240 = VECTOR ( 'NONE', #167, 1000.000000000000000 ) ;
#241 = CARTESIAN_POINT ( 'NONE',  ( 0.4000000000000000222, 0.0000000000000000000, 0.5000000000000000000 ) ) ;
#242 = CARTESIAN_POINT ( 'NONE',  ( 0.0000000000000000000, 0.0000000000000000000, 0.5000000000000000000 ) ) ;
#243 = PERSON_AND_ORGANIZATION ( #192, #95 ) ;
#244 = APPROVAL ( #238, 'UNSPECIFIED' ) ;
#245 = VECTOR ( 'NONE', #257, 1000.000000000000000 ) ;
#246 = DIRECTION ( 'NONE',  ( -1.000000000000000000, 0.0000000000000000000, 0.0000000000000000000 ) ) ;
#247 = CARTESIAN_POINT ( 'NONE',  ( -0.4000000000000000222, 0.5000000000000000000, 0.0000000000000000000 ) ) ;
#248 = CC_DESIGN_APPROVAL ( #264, ( #276 ) ) ;
#249 = DIRECTION ( 'NONE',  ( 0.0000000000000000000, 1.000000000000000000, 0.0000000000000000000 ) ) ;
#250 = ORIENTED_EDGE ( 'NONE', *, *, #55, .F. ) ;
#251 = VECTOR ( 'NONE', #199, 1000.000000000000000 ) ;
#252 = LINE ( 'NONE', #110, #57 ) ;
#253 = ORIENTED_EDGE ( 'NONE', *, *, #189, .F. ) ;
#254 = LOCAL_TIME ( 18, 25, 57.00000000000000000, #48 ) ;
#255 = CARTESIAN_POINT ( 'NONE',  ( -0.4000000000000000222, 0.4000000000000000222, 0.2000000000000000111 ) ) ;
#256 = ORIENTED_EDGE ( 'NONE', *, *, #259, .F. ) ;
#257 = DIRECTION ( 'NONE',  ( 0.0000000000000000000, 0.4472135954999579277, -0.8944271909999158554 ) ) ;
#258 = DIRECTION ( 'NONE',  ( 1.000000000000000000, 0.0000000000000000000, 0.0000000000000000000 ) ) ;
#259 = EDGE_CURVE ( 'NONE', #296, #188, #317, .T. ) ;
#260 = DIRECTION ( 'NONE',  ( 0.0000000000000000000, 0.0000000000000000000, 1.000000000000000000 ) ) ;
#261 = CARTESIAN_POINT ( 'NONE',  ( -0.4000000000000000222, -0.8000000000000000444, 0.0000000000000000000 ) ) ;
#262 = LINE ( 'NONE', #287, #245 ) ;
#263 = DIRECTION ( 'NONE',  ( 0.0000000000000000000, 0.0000000000000000000, 1.000000000000000000 ) ) ;
#264 = APPROVAL ( #97, 'UNSPECIFIED' ) ;
#265 = FACE_OUTER_BOUND ( 'NONE', #140, .T. ) ;
#266 = DIRECTION ( 'NONE',  ( 0.0000000000000000000, 0.0000000000000000000, -1.000000000000000000 ) ) ;
#267 = DIRECTION ( 'NONE',  ( 0.0000000000000000000, -0.4472135954999579277, -0.8944271909999158554 ) ) ;
#268 = CARTESIAN_POINT ( 'NONE',  ( 0.0000000000000000000, 0.8000000000000000444, 0.2000000000000000111 ) ) ;
#269 =( NAMED_UNIT ( * ) PLANE_ANGLE_UNIT ( ) SI_UNIT ( $, .RADIAN. ) );
#270 = ADVANCED_FACE ( 'NONE', ( #235 ), #279, .T. ) ;
#271 = DIRECTION ( 'NONE',  ( 0.0000000000000000000, 1.000000000000000000, 0.0000000000000000000 ) ) ;
#272 = LINE ( 'NONE', #334, #333 ) ;
#273 = LINE ( 'NONE', #302, #129 ) ;
#274 = PERSON_AND_ORGANIZATION ( #192, #95 ) ;
#275 = VECTOR ( 'NONE', #263, 1000.000000000000000 ) ;
#276 = SECURITY_CLASSIFICATION ( '', '', #326 ) ;
#277 = CC_DESIGN_PERSON_AND_ORGANIZATION_ASSIGNMENT ( #236, #289, ( #145 ) ) ;
#278 = VERTEX_POINT ( 'NONE', #93 ) ;
#279 = PLANE ( 'NONE',  #211 ) ;
#280 = ORIENTED_EDGE ( 'NONE', *, *, #303, .T. ) ;
#281 = AXIS2_PLACEMENT_3D ( 'NONE', #181, #105, #74 ) ;
#282 = DIRECTION ( 'NONE',  ( 0.0000000000000000000, -1.000000000000000000, 0.0000000000000000000 ) ) ;
#283 = CC_DESIGN_SECURITY_CLASSIFICATION ( #276, ( #145 ) ) ;
#284 = EDGE_CURVE ( 'NONE', #237, #137, #115, .T. ) ;
#285 = FACE_OUTER_BOUND ( 'NONE', #165, .T. ) ;
#286 = ORIENTED_EDGE ( 'NONE', *, *, #128, .F. ) ;
#287 = CARTESIAN_POINT ( 'NONE',  ( -0.4000000000000000222, 0.5000000000000000000, 0.0000000000000000000 ) ) ;
#288 = DIRECTION ( 'NONE',  ( 0.0000000000000000000, 0.0000000000000000000, -1.000000000000000000 ) ) ;
#289 = PERSON_AND_ORGANIZATION_ROLE ( 'design_supplier' ) ;
#290 = AXIS2_PLACEMENT_3D ( 'NONE', #242, #298, #183 ) ;
#291 = ORIENTED_EDGE ( 'NONE', *, *, #144, .F. ) ;
#292 = ORIENTED_EDGE ( 'NONE', *, *, #156, .T. ) ;
#293 = DIRECTION ( 'NONE',  ( 1.000000000000000000, 0.0000000000000000000, 0.0000000000000000000 ) ) ;
#294 = COORDINATED_UNIVERSAL_TIME_OFFSET ( 9, 0, .AHEAD. ) ;
#295 = CARTESIAN_POINT ( 'NONE',  ( 0.0000000000000000000, 0.0000000000000000000, 0.2000000000000000111 ) ) ;
#296 = VERTEX_POINT ( 'NONE', #147 ) ;
#297 = CALENDAR_DATE ( 2019, 13, 11 ) ;
#298 = DIRECTION ( 'NONE',  ( 0.0000000000000000000, 0.0000000000000000000, 1.000000000000000000 ) ) ;
#299 = EDGE_CURVE ( 'NONE', #230, #343, #307, .T. ) ;
#300 = DIRECTION ( 'NONE',  ( 1.000000000000000000, 0.0000000000000000000, 0.0000000000000000000 ) ) ;
#301 = AXIS2_PLACEMENT_3D ( 'NONE', #268, #249, #365 ) ;
#302 = CARTESIAN_POINT ( 'NONE',  ( 0.0000000000000000000, 0.5000000000000000000, 0.0000000000000000000 ) ) ;
#303 = EDGE_CURVE ( 'NONE', #137, #207, #164, .T. ) ;
#304 = CARTESIAN_POINT ( 'NONE',  ( -0.4000000000000000222, -0.5000000000000000000, 0.0000000000000000000 ) ) ;
#305 = PRODUCT_DEFINITION ( 'UNKNOWN', '', #145, #68 ) ;
#306 = CC_DESIGN_APPROVAL ( #244, ( #305 ) ) ;
#307 = LINE ( 'NONE', #143, #345 ) ;
#308 = VERTEX_POINT ( 'NONE', #190 ) ;
#309 = LINE ( 'NONE', #228, #124 ) ;
#310 = ORIENTED_EDGE ( 'NONE', *, *, #366, .F. ) ;
#311 = ADVANCED_FACE ( 'NONE', ( #285 ), #56, .T. ) ;
#312 = DIRECTION ( 'NONE',  ( 0.0000000000000000000, -0.8944271909999156334, 0.4472135954999583718 ) ) ;
#313 = EDGE_LOOP ( 'NONE', ( #280, #198, #111, #286, #358, #5, #85, #350 ) ) ;
#314 = VERTEX_POINT ( 'NONE', #28 ) ;
#315 = CARTESIAN_POINT ( 'NONE',  ( 0.0000000000000000000, -0.8000000000000000444, 0.5000000000000000000 ) ) ;
#316 = DIRECTION ( 'NONE',  ( -1.000000000000000000, 0.0000000000000000000, 0.0000000000000000000 ) ) ;
#317 = LINE ( 'NONE', #80, #240 ) ;
#318 = VECTOR ( 'NONE', #258, 1000.000000000000000 ) ;
#319 = ORIENTED_EDGE ( 'NONE', *, *, #332, .T. ) ;
#320 = CARTESIAN_POINT ( 'NONE',  ( 0.0000000000000000000, 0.0000000000000000000, 0.0000000000000000000 ) ) ;
#321 = AXIS2_PLACEMENT_3D ( 'NONE', #36, #312, #224 ) ;
#322 = DIRECTION ( 'NONE',  ( 0.0000000000000000000, 0.0000000000000000000, -1.000000000000000000 ) ) ;
#323 = APPROVAL_DATE_TIME ( #348, #341 ) ;
#324 = ORIENTED_EDGE ( 'NONE', *, *, #303, .F. ) ;
#325 = MECHANICAL_CONTEXT ( 'NONE', #223, 'mechanical' ) ;
#326 = SECURITY_CLASSIFICATION_LEVEL ( 'unclassified' ) ;
#327 = CC_DESIGN_PERSON_AND_ORGANIZATION_ASSIGNMENT ( #87, #179, ( #145 ) ) ;
#328 = DIRECTION ( 'NONE',  ( -1.000000000000000000, 0.0000000000000000000, 0.0000000000000000000 ) ) ;
#329 = COORDINATED_UNIVERSAL_TIME_OFFSET ( 9, 0, .AHEAD. ) ;
#330 = PLANE ( 'NONE',  #301 ) ;
#331 = DIRECTION ( 'NONE',  ( 1.000000000000000000, 0.0000000000000000000, 0.0000000000000000000 ) ) ;
#332 = EDGE_CURVE ( 'NONE', #109, #207, #351, .T. ) ;
#333 = VECTOR ( 'NONE', #362, 1000.000000000000000 ) ;
#334 = CARTESIAN_POINT ( 'NONE',  ( -0.4000000000000000222, 0.0000000000000000000, 0.5000000000000000000 ) ) ;
#335 = EDGE_CURVE ( 'NONE', #232, #278, #309, .T. ) ;
#336 = AXIS2_PLACEMENT_3D ( 'NONE', #247, #49, #102 ) ;
#337 = LOCAL_TIME ( 18, 25, 57.00000000000000000, #329 ) ;
#338 = ORIENTED_EDGE ( 'NONE', *, *, #42, .F. ) ;
#339 = FACE_OUTER_BOUND ( 'NONE', #171, .T. ) ;
#340 = EDGE_LOOP ( 'NONE', ( #64, #46, #191, #26 ) ) ;
#341 = APPROVAL ( #44, 'UNSPECIFIED' ) ;
#342 = CARTESIAN_POINT ( 'NONE',  ( -0.4000000000000000222, -0.6500000000000000222, 0.0000000000000000000 ) ) ;
#343 = VERTEX_POINT ( 'NONE', #347 ) ;
#344 = VECTOR ( 'NONE', #260, 1000.000000000000000 ) ;
#345 = VECTOR ( 'NONE', #193, 1000.000000000000000 ) ;
#346 = DIRECTION ( 'NONE',  ( 0.0000000000000000000, 1.000000000000000000, 0.0000000000000000000 ) ) ;
#347 = CARTESIAN_POINT ( 'NONE',  ( 0.4000000000000000222, 0.4000000000000000222, 0.2000000000000000111 ) ) ;
#348 = DATE_AND_TIME ( #17, #254 ) ;
#349 = VERTEX_POINT ( 'NONE', #63 ) ;
#350 = ORIENTED_EDGE ( 'NONE', *, *, #284, .T. ) ;
#351 = LINE ( 'NONE', #315, #22 ) ;
#352 = PERSON_AND_ORGANIZATION ( #192, #95 ) ;
#353 = DIRECTION ( 'NONE',  ( 0.0000000000000000000, -1.000000000000000000, 0.0000000000000000000 ) ) ;
#354 = CARTESIAN_POINT ( 'NONE',  ( 0.0000000000000000000, -0.8000000000000000444, 0.0000000000000000000 ) ) ;
#355 = ORIENTED_EDGE ( 'NONE', *, *, #219, .T. ) ;
#356 = APPROVAL_ROLE ( '' ) ;
#357 = CALENDAR_DATE ( 2019, 13, 11 ) ;
#358 = ORIENTED_EDGE ( 'NONE', *, *, #25, .F. ) ;
#359 = EDGE_CURVE ( 'NONE', #232, #349, #233, .T. ) ;
#360 = CARTESIAN_POINT ( 'NONE',  ( -0.4000000000000000222, 0.6500000000000000222, 0.0000000000000000000 ) ) ;
#361 = UNCERTAINTY_MEASURE_WITH_UNIT (LENGTH_MEASURE( 1.000000000000000082E-05 ), #202, 'distance_accuracy_value', 'NONE');
#362 = DIRECTION ( 'NONE',  ( 0.0000000000000000000, 1.000000000000000000, 0.0000000000000000000 ) ) ;
#363 = APPROVAL_PERSON_ORGANIZATION ( #274, #341, #151 ) ;
#364 = LINE ( 'NONE', #152, #13 ) ;
#365 = DIRECTION ( 'NONE',  ( 0.0000000000000000000, 0.0000000000000000000, 1.000000000000000000 ) ) ;
#366 = EDGE_CURVE ( 'NONE', #188, #237, #205, .T. ) ;
#367 = ADVANCED_BREP_SHAPE_REPRESENTATION ( 'TLRZ1J', ( #184, #173 ), #34 ) ;
#368 = CARTESIAN_POINT ( 'NONE',  ( -0.4000000000000000222, -0.4000000000000000222, 0.2000000000000000111 ) ) ;
#369 = ORIENTED_EDGE ( 'NONE', *, *, #20, .T. ) ;
ENDSEC;
END-ISO-10303-21;
