ISO-10303-21;
HEADER;
FILE_DESCRIPTION (( 'STEP AP203' ),
    '1' );
FILE_NAME ('TLRZ2A.STEP',
    '2019-11-13T09:26:39',
    ( '' ),
    ( '' ),
    'SwSTEP 2.0',
    'SolidWorks 2019',
    '' );
FILE_SCHEMA (( 'CONFIG_CONTROL_DESIGN' ));
ENDSEC;

DATA;
#1 = LINE ( 'NONE', #31, #123 ) ;
#2 = DIRECTION ( 'NONE',  ( 0.0000000000000000000, -0.4984711242580829871, -0.8669063030575350215 ) ) ;
#3 = PLANE ( 'NONE',  #178 ) ;
#4 = ORIENTED_EDGE ( 'NONE', *, *, #65, .T. ) ;
#5 = PRODUCT_RELATED_PRODUCT_CATEGORY ( 'detail', '', ( #218 ) ) ;
#6 = LOCAL_TIME ( 18, 26, 39.00000000000000000, #258 ) ;
#7 = DIRECTION ( 'NONE',  ( 0.0000000000000000000, 0.0000000000000000000, 1.000000000000000000 ) ) ;
#8 = VECTOR ( 'NONE', #314, 1000.000000000000000 ) ;
#9 = DIRECTION ( 'NONE',  ( 0.0000000000000000000, 0.0000000000000000000, -1.000000000000000000 ) ) ;
#10 = VECTOR ( 'NONE', #2, 1000.000000000000000 ) ;
#11 = ORIENTED_EDGE ( 'NONE', *, *, #181, .F. ) ;
#12 = APPROVAL_STATUS ( 'not_yet_approved' ) ;
#13 = VECTOR ( 'NONE', #209, 1000.000000000000000 ) ;
#14 = APPROVAL ( #20, 'UNSPECIFIED' ) ;
#15 = VERTEX_POINT ( 'NONE', #28 ) ;
#16 = DATE_AND_TIME ( #296, #353 ) ;
#17 = CARTESIAN_POINT ( 'NONE',  ( -0.6250000000000000000, 0.5849999999999999645, 0.2000000000000000111 ) ) ;
#18 = ORIENTED_EDGE ( 'NONE', *, *, #76, .T. ) ;
#19 = CARTESIAN_POINT ( 'NONE',  ( 0.6250000000000000000, 0.6999999999999999556, 0.0000000000000000000 ) ) ;
#20 = APPROVAL_STATUS ( 'not_yet_approved' ) ;
#21 = CARTESIAN_POINT ( 'NONE',  ( -0.6250000000000000000, 0.6999999999999999556, 0.0000000000000000000 ) ) ;
#22 = CARTESIAN_POINT ( 'NONE',  ( 0.6250000000000000000, -1.000000000000000000, 0.0000000000000000000 ) ) ;
#23 = EDGE_CURVE ( 'NONE', #150, #259, #144, .T. ) ;
#24 = LINE ( 'NONE', #17, #129 ) ;
#25 = ORIENTED_EDGE ( 'NONE', *, *, #252, .T. ) ;
#26 = EDGE_CURVE ( 'NONE', #219, #117, #173, .T. ) ;
#27 = DIRECTION ( 'NONE',  ( 0.0000000000000000000, 0.8669063030575350215, 0.4984711242580829871 ) ) ;
#28 = CARTESIAN_POINT ( 'NONE',  ( -0.6250000000000000000, 0.5849999999999999645, 0.2000000000000000111 ) ) ;
#29 = CARTESIAN_POINT ( 'NONE',  ( -0.6250000000000000000, -1.000000000000000000, 0.0000000000000000000 ) ) ;
#30 = EDGE_LOOP ( 'NONE', ( #232, #81, #337, #245 ) ) ;
#31 = CARTESIAN_POINT ( 'NONE',  ( 0.6250000000000000000, 0.0000000000000000000, 0.5000000000000000000 ) ) ;
#32 = ORIENTED_EDGE ( 'NONE', *, *, #68, .F. ) ;
#33 = LINE ( 'NONE', #64, #8 ) ;
#34 = EDGE_CURVE ( 'NONE', #237, #117, #281, .T. ) ;
#35 = CARTESIAN_POINT ( 'NONE',  ( 0.0000000000000000000, 0.6999999999999999556, 0.0000000000000000000 ) ) ;
#36 = COORDINATED_UNIVERSAL_TIME_OFFSET ( 9, 0, .AHEAD. ) ;
#37 = EDGE_CURVE ( 'NONE', #259, #42, #223, .T. ) ;
#38 = PERSON_AND_ORGANIZATION ( #148, #145 ) ;
#39 = VECTOR ( 'NONE', #190, 1000.000000000000000 ) ;
#40 = CC_DESIGN_APPROVAL ( #168, ( #227 ) ) ;
#41 = AXIS2_PLACEMENT_3D ( 'NONE', #199, #306, #347 ) ;
#42 = VERTEX_POINT ( 'NONE', #101 ) ;
#43 = CALENDAR_DATE ( 2019, 13, 11 ) ;
#44 = EDGE_CURVE ( 'NONE', #221, #61, #243, .T. ) ;
#45 = ORIENTED_EDGE ( 'NONE', *, *, #56, .T. ) ;
#46 = EDGE_LOOP ( 'NONE', ( #25, #278, #263, #188 ) ) ;
#47 = DIRECTION ( 'NONE',  ( 0.0000000000000000000, 0.4984711242580829871, -0.8669063030575350215 ) ) ;
#48 = PERSON_AND_ORGANIZATION ( #148, #145 ) ;
#49 = PERSON_AND_ORGANIZATION ( #148, #145 ) ;
#50 = DIRECTION ( 'NONE',  ( 0.0000000000000000000, 0.0000000000000000000, 1.000000000000000000 ) ) ;
#51 = ADVANCED_FACE ( 'NONE', ( #326 ), #75, .F. ) ;
#52 = CARTESIAN_POINT ( 'NONE',  ( 0.6250000000000000000, -0.8499999999999999778, 0.0000000000000000000 ) ) ;
#53 = DIRECTION ( 'NONE',  ( 1.000000000000000000, 0.0000000000000000000, 0.0000000000000000000 ) ) ;
#54 = VECTOR ( 'NONE', #154, 1000.000000000000000 ) ;
#55 = LINE ( 'NONE', #164, #211 ) ;
#56 = EDGE_CURVE ( 'NONE', #42, #292, #302, .T. ) ;
#57 = DIRECTION ( 'NONE',  ( 0.0000000000000000000, -1.000000000000000000, 0.0000000000000000000 ) ) ;
#58 = VECTOR ( 'NONE', #47, 1000.000000000000000 ) ;
#59 = ORIENTED_EDGE ( 'NONE', *, *, #215, .F. ) ;
#60 = DIRECTION ( 'NONE',  ( 0.0000000000000000000, 1.000000000000000000, 0.0000000000000000000 ) ) ;
#61 = VERTEX_POINT ( 'NONE', #297 ) ;
#62 = ADVANCED_FACE ( 'NONE', ( #167 ), #216, .T. ) ;
#63 = DIRECTION ( 'NONE',  ( 0.0000000000000000000, 1.000000000000000000, 0.0000000000000000000 ) ) ;
#64 = CARTESIAN_POINT ( 'NONE',  ( -0.6250000000000000000, -0.8499999999999999778, 0.0000000000000000000 ) ) ;
#65 = EDGE_CURVE ( 'NONE', #171, #102, #272, .T. ) ;
#66 = CALENDAR_DATE ( 2019, 13, 11 ) ;
#67 = ORIENTED_EDGE ( 'NONE', *, *, #34, .T. ) ;
#68 = EDGE_CURVE ( 'NONE', #15, #171, #165, .T. ) ;
#69 = APPROVAL_ROLE ( '' ) ;
#70 = ORIENTED_EDGE ( 'NONE', *, *, #56, .F. ) ;
#71 = PERSON_AND_ORGANIZATION ( #148, #145 ) ;
#72 = ORIENTED_EDGE ( 'NONE', *, *, #23, .F. ) ;
#73 = DIRECTION ( 'NONE',  ( 0.0000000000000000000, 1.000000000000000000, 0.0000000000000000000 ) ) ;
#74 = ORIENTED_EDGE ( 'NONE', *, *, #356, .F. ) ;
#75 = PLANE ( 'NONE',  #121 ) ;
#76 = EDGE_CURVE ( 'NONE', #200, #261, #193, .T. ) ;
#77 = DIRECTION ( 'NONE',  ( 0.0000000000000000000, 0.0000000000000000000, 1.000000000000000000 ) ) ;
#78 = DIRECTION ( 'NONE',  ( 0.0000000000000000000, 0.0000000000000000000, -1.000000000000000000 ) ) ;
#79 = VECTOR ( 'NONE', #73, 1000.000000000000000 ) ;
#80 =( GEOMETRIC_REPRESENTATION_CONTEXT ( 3 ) GLOBAL_UNCERTAINTY_ASSIGNED_CONTEXT ( ( #125 ) ) GLOBAL_UNIT_ASSIGNED_CONTEXT ( ( #349, #120, #317 ) ) REPRESENTATION_CONTEXT ( 'NONE', 'WORKASPACE' ) );
#81 = ORIENTED_EDGE ( 'NONE', *, *, #128, .F. ) ;
#82 = FACE_OUTER_BOUND ( 'NONE', #30, .T. ) ;
#83 = EDGE_LOOP ( 'NONE', ( #276, #89, #59, #70 ) ) ;
#84 = AXIS2_PLACEMENT_3D ( 'NONE', #107, #217, #358 ) ;
#85 = DIRECTION ( 'NONE',  ( 1.000000000000000000, 0.0000000000000000000, 0.0000000000000000000 ) ) ;
#86 = VERTEX_POINT ( 'NONE', #138 ) ;
#87 = EDGE_CURVE ( 'NONE', #15, #237, #55, .T. ) ;
#88 = DIRECTION ( 'NONE',  ( 0.0000000000000000000, -0.4984711242580829871, -0.8669063030575350215 ) ) ;
#89 = ORIENTED_EDGE ( 'NONE', *, *, #256, .F. ) ;
#90 = CARTESIAN_POINT ( 'NONE',  ( 0.0000000000000000000, 0.8499999999999999778, 0.0000000000000000000 ) ) ;
#91 = CARTESIAN_POINT ( 'NONE',  ( 0.6250000000000000000, -1.000000000000000000, 0.5000000000000000000 ) ) ;
#92 = ADVANCED_FACE ( 'NONE', ( #274 ), #139, .T. ) ;
#93 = MECHANICAL_CONTEXT ( 'NONE', #340, 'mechanical' ) ;
#94 = VECTOR ( 'NONE', #112, 1000.000000000000000 ) ;
#95 = APPLICATION_PROTOCOL_DEFINITION ( 'international standard', 'config_control_design', 1994, #340 ) ;
#96 = ORIENTED_EDGE ( 'NONE', *, *, #26, .T. ) ;
#97 = APPROVAL ( #12, 'UNSPECIFIED' ) ;
#98 = AXIS2_PLACEMENT_3D ( 'NONE', #350, #126, #155 ) ;
#99 = ORIENTED_EDGE ( 'NONE', *, *, #34, .F. ) ;
#100 = CALENDAR_DATE ( 2019, 13, 11 ) ;
#101 = CARTESIAN_POINT ( 'NONE',  ( -0.6250000000000000000, -1.000000000000000000, 0.5000000000000000000 ) ) ;
#102 = VERTEX_POINT ( 'NONE', #360 ) ;
#103 = COORDINATED_UNIVERSAL_TIME_OFFSET ( 9, 0, .AHEAD. ) ;
#104 = DIRECTION ( 'NONE',  ( 0.0000000000000000000, 1.000000000000000000, 0.0000000000000000000 ) ) ;
#105 = FACE_OUTER_BOUND ( 'NONE', #266, .T. ) ;
#106 = DIRECTION ( 'NONE',  ( 0.0000000000000000000, -0.4984711242580829871, -0.8669063030575350215 ) ) ;
#107 = CARTESIAN_POINT ( 'NONE',  ( 0.0000000000000000000, -1.000000000000000000, 0.0000000000000000000 ) ) ;
#108 = CLOSED_SHELL ( 'NONE', ( #158, #364, #187, #62, #288, #92, #162, #192, #327, #51 ) ) ;
#109 = ORIENTED_EDGE ( 'NONE', *, *, #196, .F. ) ;
#110 = DIRECTION ( 'NONE',  ( 0.0000000000000000000, 0.4984711242580829871, -0.8669063030575350215 ) ) ;
#111 = DIRECTION ( 'NONE',  ( -1.000000000000000000, 0.0000000000000000000, 0.0000000000000000000 ) ) ;
#112 = DIRECTION ( 'NONE',  ( 1.000000000000000000, 0.0000000000000000000, 0.0000000000000000000 ) ) ;
#113 = DIRECTION ( 'NONE',  ( 0.0000000000000000000, 0.0000000000000000000, 1.000000000000000000 ) ) ;
#114 = EDGE_CURVE ( 'NONE', #221, #261, #267, .T. ) ;
#115 = SECURITY_CLASSIFICATION ( '', '', #132 ) ;
#116 = LINE ( 'NONE', #220, #354 ) ;
#117 = VERTEX_POINT ( 'NONE', #336 ) ;
#118 = PLANE ( 'NONE',  #41 ) ;
#119 = LINE ( 'NONE', #249, #94 ) ;
#120 =( NAMED_UNIT ( * ) PLANE_ANGLE_UNIT ( ) SI_UNIT ( $, .RADIAN. ) );
#121 = AXIS2_PLACEMENT_3D ( 'NONE', #213, #304, #106 ) ;
#122 = PERSON_AND_ORGANIZATION_ROLE ( 'design_owner' ) ;
#123 = VECTOR ( 'NONE', #57, 1000.000000000000000 ) ;
#124 = ORIENTED_EDGE ( 'NONE', *, *, #294, .T. ) ;
#125 = UNCERTAINTY_MEASURE_WITH_UNIT (LENGTH_MEASURE( 1.000000000000000082E-05 ), #349, 'distance_accuracy_value', 'NONE');
#126 = DIRECTION ( 'NONE',  ( -1.000000000000000000, 0.0000000000000000000, 0.0000000000000000000 ) ) ;
#127 = APPROVAL_ROLE ( '' ) ;
#128 = EDGE_CURVE ( 'NONE', #15, #200, #24, .T. ) ;
#129 = VECTOR ( 'NONE', #166, 1000.000000000000000 ) ;
#130 = LOCAL_TIME ( 18, 26, 39.00000000000000000, #36 ) ;
#131 = ORIENTED_EDGE ( 'NONE', *, *, #283, .T. ) ;
#132 = SECURITY_CLASSIFICATION_LEVEL ( 'unclassified' ) ;
#133 = CARTESIAN_POINT ( 'NONE',  ( 0.0000000000000000000, 1.000000000000000000, 0.2000000000000000111 ) ) ;
#134 = ORIENTED_EDGE ( 'NONE', *, *, #234, .F. ) ;
#135 = CC_DESIGN_PERSON_AND_ORGANIZATION_ASSIGNMENT ( #38, #156, ( #227 ) ) ;
#136 = CARTESIAN_POINT ( 'NONE',  ( 0.0000000000000000000, 0.0000000000000000000, 0.5000000000000000000 ) ) ;
#137 = APPROVAL_ROLE ( '' ) ;
#138 = CARTESIAN_POINT ( 'NONE',  ( 0.6250000000000000000, -0.5849999999999999645, 0.2000000000000000111 ) ) ;
#139 = PLANE ( 'NONE',  #257 ) ;
#140 = CC_DESIGN_DATE_AND_TIME_ASSIGNMENT ( #330, #160, ( #115 ) ) ;
#141 = DIRECTION ( 'NONE',  ( 0.0000000000000000000, -1.000000000000000000, 0.0000000000000000000 ) ) ;
#142 = ORIENTED_EDGE ( 'NONE', *, *, #23, .T. ) ;
#143 = CARTESIAN_POINT ( 'NONE',  ( 0.6250000000000000000, 0.0000000000000000000, 0.2000000000000000111 ) ) ;
#144 = LINE ( 'NONE', #369, #295 ) ;
#145 = ORGANIZATION ( 'UNSPECIFIED', 'UNSPECIFIED', '' ) ;
#146 = DIRECTION ( 'NONE',  ( 0.0000000000000000000, 0.0000000000000000000, -1.000000000000000000 ) ) ;
#147 = ORIENTED_EDGE ( 'NONE', *, *, #44, .T. ) ;
#148 = PERSON ( 'UNSPECIFIED', 'UNSPECIFIED', 'UNSPECIFIED', ('UNSPECIFIED'), ('UNSPECIFIED'), ('UNSPECIFIED') ) ;
#149 = DIRECTION ( 'NONE',  ( 1.000000000000000000, 0.0000000000000000000, 0.0000000000000000000 ) ) ;
#150 = VERTEX_POINT ( 'NONE', #22 ) ;
#151 = CC_DESIGN_APPROVAL ( #97, ( #115 ) ) ;
#152 = PLANE ( 'NONE',  #182 ) ;
#153 = APPROVAL_PERSON_ORGANIZATION ( #48, #14, #137 ) ;
#154 = DIRECTION ( 'NONE',  ( -1.000000000000000000, 0.0000000000000000000, 0.0000000000000000000 ) ) ;
#155 = DIRECTION ( 'NONE',  ( 0.0000000000000000000, 0.0000000000000000000, 1.000000000000000000 ) ) ;
#156 = PERSON_AND_ORGANIZATION_ROLE ( 'creator' ) ;
#157 = ORIENTED_EDGE ( 'NONE', *, *, #311, .F. ) ;
#158 = ADVANCED_FACE ( 'NONE', ( #236 ), #244, .T. ) ;
#159 = EDGE_LOOP ( 'NONE', ( #309, #72, #320, #355, #359, #18, #342, #147 ) ) ;
#160 = DATE_TIME_ROLE ( 'classification_date' ) ;
#161 = VECTOR ( 'NONE', #315, 1000.000000000000000 ) ;
#162 = ADVANCED_FACE ( 'NONE', ( #265 ), #301, .T. ) ;
#163 = COORDINATED_UNIVERSAL_TIME_OFFSET ( 9, 0, .AHEAD. ) ;
#164 = CARTESIAN_POINT ( 'NONE',  ( -0.6250000000000000000, 0.0000000000000000000, 0.2000000000000000111 ) ) ;
#165 = LINE ( 'NONE', #21, #39 ) ;
#166 = DIRECTION ( 'NONE',  ( 1.000000000000000000, 0.0000000000000000000, 0.0000000000000000000 ) ) ;
#167 = FACE_OUTER_BOUND ( 'NONE', #159, .T. ) ;
#168 = APPROVAL ( #204, 'UNSPECIFIED' ) ;
#169 = CARTESIAN_POINT ( 'NONE',  ( 0.0000000000000000000, -0.6999999999999999556, 0.0000000000000000000 ) ) ;
#170 = CARTESIAN_POINT ( 'NONE',  ( -0.6250000000000000000, 1.000000000000000000, 0.2000000000000000111 ) ) ;
#171 = VERTEX_POINT ( 'NONE', #270 ) ;
#172 = CARTESIAN_POINT ( 'NONE',  ( 0.0000000000000000000, 1.000000000000000000, 0.0000000000000000000 ) ) ;
#173 = LINE ( 'NONE', #169, #279 ) ;
#174 = VECTOR ( 'NONE', #85, 1000.000000000000000 ) ;
#175 = PLANE ( 'NONE',  #282 ) ;
#176 = ORIENTED_EDGE ( 'NONE', *, *, #240, .T. ) ;
#177 = FACE_OUTER_BOUND ( 'NONE', #339, .T. ) ;
#178 = AXIS2_PLACEMENT_3D ( 'NONE', #90, #9, #197 ) ;
#179 = CARTESIAN_POINT ( 'NONE',  ( -0.6250000000000000000, 1.000000000000000000, 0.5000000000000000000 ) ) ;
#180 = APPLICATION_PROTOCOL_DEFINITION ( 'international standard', 'config_control_design', 1994, #214 ) ;
#181 = EDGE_CURVE ( 'NONE', #237, #86, #331, .T. ) ;
#182 = AXIS2_PLACEMENT_3D ( 'NONE', #348, #146, #284 ) ;
#183 = CC_DESIGN_SECURITY_CLASSIFICATION ( #115, ( #206 ) ) ;
#184 = ORIENTED_EDGE ( 'NONE', *, *, #351, .T. ) ;
#185 = EDGE_LOOP ( 'NONE', ( #142, #210, #109, #184 ) ) ;
#186 = PERSON_AND_ORGANIZATION_ROLE ( 'creator' ) ;
#187 = ADVANCED_FACE ( 'NONE', ( #105 ), #152, .T. ) ;
#188 = ORIENTED_EDGE ( 'NONE', *, *, #283, .F. ) ;
#189 = DATE_AND_TIME ( #66, #6 ) ;
#190 = DIRECTION ( 'NONE',  ( 0.0000000000000000000, 0.4984711242580829871, -0.8669063030575350215 ) ) ;
#191 = CARTESIAN_POINT ( 'NONE',  ( -0.6250000000000000000, 0.0000000000000000000, 0.5000000000000000000 ) ) ;
#192 = ADVANCED_FACE ( 'NONE', ( #345 ), #3, .T. ) ;
#193 = LINE ( 'NONE', #19, #58 ) ;
#194 = CARTESIAN_POINT ( 'NONE',  ( 0.6250000000000000000, 1.000000000000000000, 0.2000000000000000111 ) ) ;
#195 = ORIENTED_EDGE ( 'NONE', *, *, #252, .F. ) ;
#196 = EDGE_CURVE ( 'NONE', #207, #42, #280, .T. ) ;
#197 = DIRECTION ( 'NONE',  ( -1.000000000000000000, 0.0000000000000000000, 0.0000000000000000000 ) ) ;
#198 = ORIENTED_EDGE ( 'NONE', *, *, #351, .F. ) ;
#199 = CARTESIAN_POINT ( 'NONE',  ( 0.0000000000000000000, 0.0000000000000000000, 0.2000000000000000111 ) ) ;
#200 = VERTEX_POINT ( 'NONE', #202 ) ;
#201 = FACE_OUTER_BOUND ( 'NONE', #329, .T. ) ;
#202 = CARTESIAN_POINT ( 'NONE',  ( 0.6250000000000000000, 0.5849999999999999645, 0.2000000000000000111 ) ) ;
#203 = DATE_AND_TIME ( #231, #130 ) ;
#204 = APPROVAL_STATUS ( 'not_yet_approved' ) ;
#205 = PERSON_AND_ORGANIZATION_ROLE ( 'classification_officer' ) ;
#206 = PRODUCT_DEFINITION_FORMATION_WITH_SPECIFIED_SOURCE ( 'ANY', '', #218, .NOT_KNOWN. ) ;
#207 = VERTEX_POINT ( 'NONE', #253 ) ;
#208 = DATE_AND_TIME ( #100, #290 ) ;
#209 = DIRECTION ( 'NONE',  ( -1.000000000000000000, 0.0000000000000000000, 0.0000000000000000000 ) ) ;
#210 = ORIENTED_EDGE ( 'NONE', *, *, #37, .T. ) ;
#211 = VECTOR ( 'NONE', #141, 1000.000000000000000 ) ;
#212 = DIRECTION ( 'NONE',  ( 0.0000000000000000000, 0.0000000000000000000, 1.000000000000000000 ) ) ;
#213 = CARTESIAN_POINT ( 'NONE',  ( -0.6250000000000000000, -0.6999999999999999556, 0.0000000000000000000 ) ) ;
#214 = APPLICATION_CONTEXT ( 'configuration controlled 3d designs of mechanical parts and assemblies' ) ;
#215 = EDGE_CURVE ( 'NONE', #292, #61, #119, .T. ) ;
#216 = PLANE ( 'NONE',  #224 ) ;
#217 = DIRECTION ( 'NONE',  ( 0.0000000000000000000, -1.000000000000000000, 0.0000000000000000000 ) ) ;
#218 = PRODUCT ( 'TLRZ2A', 'TLRZ2A', '', ( #93 ) ) ;
#219 = VERTEX_POINT ( 'NONE', #229 ) ;
#220 = CARTESIAN_POINT ( 'NONE',  ( 0.6250000000000000000, -0.6999999999999999556, 0.0000000000000000000 ) ) ;
#221 = VERTEX_POINT ( 'NONE', #246 ) ;
#222 = LINE ( 'NONE', #170, #300 ) ;
#223 = LINE ( 'NONE', #333, #13 ) ;
#224 = AXIS2_PLACEMENT_3D ( 'NONE', #52, #303, #78 ) ;
#225 = CARTESIAN_POINT ( 'NONE',  ( 0.6250000000000000000, -0.8499999999999999778, 0.0000000000000000000 ) ) ;
#226 = ORIENTED_EDGE ( 'NONE', *, *, #128, .T. ) ;
#227 = PRODUCT_DEFINITION ( 'UNKNOWN', '', #206, #230 ) ;
#228 = LINE ( 'NONE', #172, #174 ) ;
#229 = CARTESIAN_POINT ( 'NONE',  ( 0.6250000000000000000, -0.6999999999999999556, 0.0000000000000000000 ) ) ;
#230 = DESIGN_CONTEXT ( 'detailed design', #214, 'design' ) ;
#231 = CALENDAR_DATE ( 2019, 13, 11 ) ;
#232 = ORIENTED_EDGE ( 'NONE', *, *, #76, .F. ) ;
#233 = SHAPE_DEFINITION_REPRESENTATION ( #305, #310 ) ;
#234 = EDGE_CURVE ( 'NONE', #117, #207, #33, .T. ) ;
#235 = ORIENTED_EDGE ( 'NONE', *, *, #26, .F. ) ;
#236 = FACE_OUTER_BOUND ( 'NONE', #185, .T. ) ;
#237 = VERTEX_POINT ( 'NONE', #255 ) ;
#238 = DIRECTION ( 'NONE',  ( 0.0000000000000000000, 1.000000000000000000, 0.0000000000000000000 ) ) ;
#239 = CARTESIAN_POINT ( 'NONE',  ( -0.6250000000000000000, -0.5849999999999999645, 0.2000000000000000111 ) ) ;
#240 = EDGE_CURVE ( 'NONE', #86, #219, #116, .T. ) ;
#241 = APPROVAL_PERSON_ORGANIZATION ( #357, #97, #127 ) ;
#242 = VECTOR ( 'NONE', #149, 1000.000000000000000 ) ;
#243 = LINE ( 'NONE', #194, #287 ) ;
#244 = PLANE ( 'NONE',  #84 ) ;
#245 = ORIENTED_EDGE ( 'NONE', *, *, #294, .F. ) ;
#246 = CARTESIAN_POINT ( 'NONE',  ( 0.6250000000000000000, 1.000000000000000000, 0.0000000000000000000 ) ) ;
#247 = ORIENTED_EDGE ( 'NONE', *, *, #234, .T. ) ;
#248 = APPROVAL_PERSON_ORGANIZATION ( #268, #168, #69 ) ;
#249 = CARTESIAN_POINT ( 'NONE',  ( 0.0000000000000000000, 1.000000000000000000, 0.5000000000000000000 ) ) ;
#250 = CARTESIAN_POINT ( 'NONE',  ( -0.6250000000000000000, -0.6999999999999999556, 0.0000000000000000000 ) ) ;
#251 = LINE ( 'NONE', #225, #254 ) ;
#252 = EDGE_CURVE ( 'NONE', #102, #292, #222, .T. ) ;
#253 = CARTESIAN_POINT ( 'NONE',  ( -0.6250000000000000000, -1.000000000000000000, 0.0000000000000000000 ) ) ;
#254 = VECTOR ( 'NONE', #63, 1000.000000000000000 ) ;
#255 = CARTESIAN_POINT ( 'NONE',  ( -0.6250000000000000000, -0.5849999999999999645, 0.2000000000000000111 ) ) ;
#256 = EDGE_CURVE ( 'NONE', #61, #259, #1, .T. ) ;
#257 = AXIS2_PLACEMENT_3D ( 'NONE', #136, #77, #53 ) ;
#258 = COORDINATED_UNIVERSAL_TIME_OFFSET ( 9, 0, .AHEAD. ) ;
#259 = VERTEX_POINT ( 'NONE', #91 ) ;
#260 = CARTESIAN_POINT ( 'NONE',  ( 0.0000000000000000000, 0.0000000000000000000, 0.0000000000000000000 ) ) ;
#261 = VERTEX_POINT ( 'NONE', #341 ) ;
#262 = APPROVAL_DATE_TIME ( #208, #97 ) ;
#263 = ORIENTED_EDGE ( 'NONE', *, *, #44, .F. ) ;
#264 = PERSON_AND_ORGANIZATION_ROLE ( 'design_supplier' ) ;
#265 = FACE_OUTER_BOUND ( 'NONE', #46, .T. ) ;
#266 = EDGE_LOOP ( 'NONE', ( #74, #198, #134, #235 ) ) ;
#267 = LINE ( 'NONE', #334, #335 ) ;
#268 = PERSON_AND_ORGANIZATION ( #148, #145 ) ;
#269 = CC_DESIGN_DATE_AND_TIME_ASSIGNMENT ( #189, #299, ( #227 ) ) ;
#270 = CARTESIAN_POINT ( 'NONE',  ( -0.6250000000000000000, 0.6999999999999999556, 0.0000000000000000000 ) ) ;
#271 = MANIFOLD_SOLID_BREP ( '²ÝÎß°Ä1', #108 ) ;
#272 = LINE ( 'NONE', #365, #79 ) ;
#273 = VECTOR ( 'NONE', #60, 1000.000000000000000 ) ;
#274 = FACE_OUTER_BOUND ( 'NONE', #83, .T. ) ;
#275 = CC_DESIGN_PERSON_AND_ORGANIZATION_ASSIGNMENT ( #71, #264, ( #206 ) ) ;
#276 = ORIENTED_EDGE ( 'NONE', *, *, #37, .F. ) ;
#277 = CARTESIAN_POINT ( 'NONE',  ( -0.6250000000000000000, 0.6999999999999999556, 0.0000000000000000000 ) ) ;
#278 = ORIENTED_EDGE ( 'NONE', *, *, #215, .T. ) ;
#279 = VECTOR ( 'NONE', #111, 1000.000000000000000 ) ;
#280 = LINE ( 'NONE', #29, #161 ) ;
#281 = LINE ( 'NONE', #250, #10 ) ;
#282 = AXIS2_PLACEMENT_3D ( 'NONE', #277, #27, #110 ) ;
#283 = EDGE_CURVE ( 'NONE', #102, #221, #228, .T. ) ;
#284 = DIRECTION ( 'NONE',  ( -1.000000000000000000, 0.0000000000000000000, 0.0000000000000000000 ) ) ;
#285 = EDGE_LOOP ( 'NONE', ( #325, #124, #4, #131 ) ) ;
#286 = PLANE ( 'NONE',  #98 ) ;
#287 = VECTOR ( 'NONE', #50, 1000.000000000000000 ) ;
#288 = ADVANCED_FACE ( 'NONE', ( #201 ), #118, .T. ) ;
#289 = DIRECTION ( 'NONE',  ( 0.0000000000000000000, 0.0000000000000000000, 1.000000000000000000 ) ) ;
#290 = LOCAL_TIME ( 18, 26, 39.00000000000000000, #163 ) ;
#291 = PERSON_AND_ORGANIZATION ( #148, #145 ) ;
#292 = VERTEX_POINT ( 'NONE', #179 ) ;
#293 = APPROVAL_DATE_TIME ( #16, #14 ) ;
#294 = EDGE_CURVE ( 'NONE', #261, #171, #312, .T. ) ;
#295 = VECTOR ( 'NONE', #113, 1000.000000000000000 ) ;
#296 = CALENDAR_DATE ( 2019, 13, 11 ) ;
#297 = CARTESIAN_POINT ( 'NONE',  ( 0.6250000000000000000, 1.000000000000000000, 0.5000000000000000000 ) ) ;
#298 = CC_DESIGN_PERSON_AND_ORGANIZATION_ASSIGNMENT ( #322, #205, ( #115 ) ) ;
#299 = DATE_TIME_ROLE ( 'creation_date' ) ;
#300 = VECTOR ( 'NONE', #7, 1000.000000000000000 ) ;
#301 = PLANE ( 'NONE',  #316 ) ;
#302 = LINE ( 'NONE', #191, #328 ) ;
#303 = DIRECTION ( 'NONE',  ( 1.000000000000000000, 0.0000000000000000000, 0.0000000000000000000 ) ) ;
#304 = DIRECTION ( 'NONE',  ( 0.0000000000000000000, -0.8669063030575350215, 0.4984711242580829871 ) ) ;
#305 = PRODUCT_DEFINITION_SHAPE ( 'NONE', 'NONE',  #227 ) ;
#306 = DIRECTION ( 'NONE',  ( 0.0000000000000000000, 0.0000000000000000000, -1.000000000000000000 ) ) ;
#307 = ORIENTED_EDGE ( 'NONE', *, *, #181, .T. ) ;
#308 = CARTESIAN_POINT ( 'NONE',  ( 0.0000000000000000000, -1.000000000000000000, 0.0000000000000000000 ) ) ;
#309 = ORIENTED_EDGE ( 'NONE', *, *, #256, .T. ) ;
#310 = ADVANCED_BREP_SHAPE_REPRESENTATION ( 'TLRZ2A', ( #271, #332 ), #80 ) ;
#311 = EDGE_CURVE ( 'NONE', #86, #200, #338, .T. ) ;
#312 = LINE ( 'NONE', #35, #54 ) ;
#313 = ORIENTED_EDGE ( 'NONE', *, *, #65, .F. ) ;
#314 = DIRECTION ( 'NONE',  ( 0.0000000000000000000, -1.000000000000000000, 0.0000000000000000000 ) ) ;
#315 = DIRECTION ( 'NONE',  ( 0.0000000000000000000, 0.0000000000000000000, 1.000000000000000000 ) ) ;
#316 = AXIS2_PLACEMENT_3D ( 'NONE', #133, #104, #212 ) ;
#317 =( NAMED_UNIT ( * ) SI_UNIT ( $, .STERADIAN. ) SOLID_ANGLE_UNIT ( ) );
#318 = APPROVAL_DATE_TIME ( #203, #168 ) ;
#319 = CC_DESIGN_PERSON_AND_ORGANIZATION_ASSIGNMENT ( #291, #122, ( #218 ) ) ;
#320 = ORIENTED_EDGE ( 'NONE', *, *, #356, .T. ) ;
#321 = DIRECTION ( 'NONE',  ( 1.000000000000000000, 0.0000000000000000000, 0.0000000000000000000 ) ) ;
#322 = PERSON_AND_ORGANIZATION ( #148, #145 ) ;
#323 = ORIENTED_EDGE ( 'NONE', *, *, #87, .F. ) ;
#324 = COORDINATED_UNIVERSAL_TIME_OFFSET ( 9, 0, .AHEAD. ) ;
#325 = ORIENTED_EDGE ( 'NONE', *, *, #114, .T. ) ;
#326 = FACE_OUTER_BOUND ( 'NONE', #352, .T. ) ;
#327 = ADVANCED_FACE ( 'NONE', ( #82 ), #175, .F. ) ;
#328 = VECTOR ( 'NONE', #238, 1000.000000000000000 ) ;
#329 = EDGE_LOOP ( 'NONE', ( #157, #11, #323, #226 ) ) ;
#330 = DATE_AND_TIME ( #43, #344 ) ;
#331 = LINE ( 'NONE', #239, #343 ) ;
#332 = AXIS2_PLACEMENT_3D ( 'NONE', #260, #289, #321 ) ;
#333 = CARTESIAN_POINT ( 'NONE',  ( 0.0000000000000000000, -1.000000000000000000, 0.5000000000000000000 ) ) ;
#334 = CARTESIAN_POINT ( 'NONE',  ( 0.6250000000000000000, 0.8499999999999999778, 0.0000000000000000000 ) ) ;
#335 = VECTOR ( 'NONE', #363, 1000.000000000000000 ) ;
#336 = CARTESIAN_POINT ( 'NONE',  ( -0.6250000000000000000, -0.6999999999999999556, 0.0000000000000000000 ) ) ;
#337 = ORIENTED_EDGE ( 'NONE', *, *, #68, .T. ) ;
#338 = LINE ( 'NONE', #143, #273 ) ;
#339 = EDGE_LOOP ( 'NONE', ( #366, #45, #195, #313, #32, #346, #67, #247 ) ) ;
#340 = APPLICATION_CONTEXT ( 'configuration controlled 3d designs of mechanical parts and assemblies' ) ;
#341 = CARTESIAN_POINT ( 'NONE',  ( 0.6250000000000000000, 0.6999999999999999556, 0.0000000000000000000 ) ) ;
#342 = ORIENTED_EDGE ( 'NONE', *, *, #114, .F. ) ;
#343 = VECTOR ( 'NONE', #362, 1000.000000000000000 ) ;
#344 = LOCAL_TIME ( 18, 26, 39.00000000000000000, #103 ) ;
#345 = FACE_OUTER_BOUND ( 'NONE', #285, .T. ) ;
#346 = ORIENTED_EDGE ( 'NONE', *, *, #87, .T. ) ;
#347 = DIRECTION ( 'NONE',  ( -1.000000000000000000, 0.0000000000000000000, 0.0000000000000000000 ) ) ;
#348 = CARTESIAN_POINT ( 'NONE',  ( 0.0000000000000000000, -0.8499999999999999778, 0.0000000000000000000 ) ) ;
#349 =( LENGTH_UNIT ( ) NAMED_UNIT ( * ) SI_UNIT ( .MILLI., .METRE. ) );
#350 = CARTESIAN_POINT ( 'NONE',  ( -0.6250000000000000000, -0.8499999999999999778, 0.0000000000000000000 ) ) ;
#351 = EDGE_CURVE ( 'NONE', #207, #150, #368, .T. ) ;
#352 = EDGE_LOOP ( 'NONE', ( #176, #96, #99, #307 ) ) ;
#353 = LOCAL_TIME ( 18, 26, 39.00000000000000000, #324 ) ;
#354 = VECTOR ( 'NONE', #88, 1000.000000000000000 ) ;
#355 = ORIENTED_EDGE ( 'NONE', *, *, #240, .F. ) ;
#356 = EDGE_CURVE ( 'NONE', #150, #219, #251, .T. ) ;
#357 = PERSON_AND_ORGANIZATION ( #148, #145 ) ;
#358 = DIRECTION ( 'NONE',  ( 0.0000000000000000000, 0.0000000000000000000, -1.000000000000000000 ) ) ;
#359 = ORIENTED_EDGE ( 'NONE', *, *, #311, .T. ) ;
#360 = CARTESIAN_POINT ( 'NONE',  ( -0.6250000000000000000, 1.000000000000000000, 0.0000000000000000000 ) ) ;
#361 = CC_DESIGN_APPROVAL ( #14, ( #206 ) ) ;
#362 = DIRECTION ( 'NONE',  ( 1.000000000000000000, 0.0000000000000000000, 0.0000000000000000000 ) ) ;
#363 = DIRECTION ( 'NONE',  ( 0.0000000000000000000, -1.000000000000000000, 0.0000000000000000000 ) ) ;
#364 = ADVANCED_FACE ( 'NONE', ( #177 ), #286, .T. ) ;
#365 = CARTESIAN_POINT ( 'NONE',  ( -0.6250000000000000000, 0.8499999999999999778, 0.0000000000000000000 ) ) ;
#366 = ORIENTED_EDGE ( 'NONE', *, *, #196, .T. ) ;
#367 = CC_DESIGN_PERSON_AND_ORGANIZATION_ASSIGNMENT ( #49, #186, ( #206 ) ) ;
#368 = LINE ( 'NONE', #308, #242 ) ;
#369 = CARTESIAN_POINT ( 'NONE',  ( 0.6250000000000000000, -1.000000000000000000, 0.0000000000000000000 ) ) ;
ENDSEC;
END-ISO-10303-21;
